Oops, an error
Loading. Please wait.

Bored To Death Tab

version 1
version 1

Acoustic

  • People have been doing have been doing acoustic ve... Show more

Whole song

Interactive

673 views 15 this week
no commentswrite comment
1 2 3 4 5
1 last vote to show rating
add to favorites
launch autoscroll
font size
0
reset
how to read this tab
guitar tuner
×
Best way to learn
"Bored To Death"
Autoscroll
slow
fast
+/-
esc
set tempo
stop
Author
About this tab version
People have been doing have been doing acoustic versions in different ways, but this is how blink 182 played it on BBC radio 1. Was this info helpful? Yes No
Verse
e|---------------------------------------------------------------|
B|---------------------------------------------------------------|
G|-5-5-5-5-8-8-8-8-----------------------------------------------|
D|-5-5-5-5-8-8-8-8-6-6-6-6--------------------------------------|
A|-3-3-3-3-6-6-6-6-6-6-6-6--------------------------------------|
E|-----------------4-4-4-4--------------------------------------|

Chorus
e|---------------------------------------------------------------|
B|---------------------------------------------------------------|
G|-8-8-8-8-------------------------------------------------------|
D|-8-8-8-8-8-8-8-8-10-10-10-10-----------------------------------|
A|-6-6-6-6-8-8-8-8-10-10-10-10-----------------------------------|
E|---------6-6-6-6-8--8--8--8------------------------------------|

I come over and over and over
e|---------------------------------------------------------------|
B|---------------------------------------------------------------|
G|-8-8-8-8-6-6-6-6-8-8-8-8---------------------------------------|
D|-8-8-8-8-6-6-6-6-8-8-8-8---------------------------------------|
A|-6-6-6-6-4-4-4-4-6-6-6-6---------------------------------------|
E|---------------------------------------------------------------|


Suggest correction
Give kudos to tab author, rate the tab!
1 2 3 4 5
comments
print report bad tab
guest
You may want to rate the tab now too:
select rating
Wanna post a correction for this tab? Suggest correction