Oops, an error
Loading. Please wait.
We have an official Bored To Death tab made by UG professional guitarists. Check out the tab »
×
877 views 1 this week
no commentswrite comment
1 2 3 4 5
2 more votes to show rating
add to favorites
×
Save as Personal and add changes to this tab that will be seen only by you. Learn more ›
×
You can save this tab as Personal to edit and correct it or add notes. All changes will be seen only by you. Learn more »
launch autoscroll
font size
0
reset
guitar tuner
backing track
0:00
0:00
edit
Autoscroll
slow
fast
+/-
esc
set tempo
stop
Blink-182
Song: Bored to Death
Album: California

Tabbed by jaronthebassist
Tempo = 160


[GUITAR INTRO]

G|----------------------------|----------------------------|
D|--------14----------14------|--------14----------14------|
A|--12-12-------12-12---------|--15-15-------15-15---------|
E|----------------------------|----------------------------|

G|----------------------------|----------------------------||
D|--------14----------12------|--------------------12------||
A|----------------------------|--------15------------------||
E|--13-13-------13-13---------|--13-13-------13-13---------||


[VERSE 1]

G|---------------------------|----------------------------|
D|o--------------------------|----------------------------|
A|o--------------------------|--3--3--3--3--3--3--3--3----|
E|-5--5--5--5--5--5--5--5----|----------------------------|

G|----------------------------|----------------------------|
D|----------------------------|----------------------------|
A|--8--8--8--8--8--8--8--8----|--8--8--8--8--8--8--8--8----|
E|----------------------------|----------------------------|

G|----------------------------|----------------------------|
D|----------------------------|----------------------------|
A|----------------------------|--3--3--3--3--3--3--3--3----|
E|--5--5--5--5--5--5--5--5----|----------------------------|

G|----------------------------|---------------------------||
D|----------------------------|--------------------------o|| x2
A|----------------------------|--------------------------o||
E|--1--1--1--1--1--1--1--1----|--1--1--1--1--1--1--1--1---||


[PRE-CHORUS 1]

G|-------|-------|-------|-------|--------------------10------|--H----|
D|-------|-------|-------|-------|--------10------------------|-------|
A|-------|-------|--3----|--H----|--/8-------8----------------|-------|
E|--5----|--H----|-------|-------|----------------------------|-------|


[CHORUS 1]

G|----------------------------|----------------------------|
D|----------------------------|----------------------------|
A|--3--3--3--3--3--3--3--3----|-----3--3--3--3--3--3--3----|
E|----------------------------|----------------------------|

G|----------------------------|----------------------------|
D|----------------------------|----------------------------|
A|----------------------------|----------------------------|
E|--3--3--3--3--3--3--3--3----|-----3--3--3--3--3--3--3----|

G|----------------------------|----------------------------|
D|----------------------------|----------------------------|
A|----------------------------|----------------------------|
E|--5--5--5--5--5--5--5--5----|-----5--5--5--5--5--5--5----|

G|----------------------------|----------------------------|
D|----------------------------|----------------------------|
A|----------------------------|----------------------------|
E|--1--1--1--1--1--1--1--1----|-----1--1--1--1--1--1--1----|

G|----------------------------|----------------------------|
D|----------------------------|----------------------------|
A|--3--3--3--3--3--3--3--3----|-----3--3--3--3--3--3--3----|
E|----------------------------|----------------------------|

G|----------------------------|----------------------------|
D|----------------------------|----------------------------|
A|----------------------------|----------------------------|
E|--3--3--3--3--3--3--3--3----|-----3--3--3--3--3--3--3----|

G|----------------------------|----------------------------|-------|-------||
D|----------------------------|----------------------------|-------|-------||
A|----------------------------|----------------------------|--8----|-Rest--||
E|--5--5--5--5--5--5--5--5----|-----5--5--5--5--5--5--5----|-------|-------||


[VERSE 2] (same as 1)

G|---------------------------|----------------------------|
D|o--------------------------|----------------------------|
A|o--------------------------|--3--3--3--3--3--3--3--3----|
E|-5--5--5--5--5--5--5--5----|----------------------------|

G|----------------------------|----------------------------|
D|----------------------------|----------------------------|
A|--8--8--8--8--8--8--8--8----|--8--8--8--8--8--8--8--8----|
E|----------------------------|----------------------------|

G|----------------------------|----------------------------|
D|----------------------------|----------------------------|
A|----------------------------|--3--3--3--3--3--3--3--3----|
E|--5--5--5--5--5--5--5--5----|----------------------------|

G|----------------------------|---------------------------||
D|----------------------------|--------------------------o|| x2
A|----------------------------|--------------------------o||
E|--1--1--1--1--1--1--1--1----|--1--1--1--1--1--1--1--1---||


[PRE-CHORUS 2] (same as 1)

G|-------|-------|-------|-------|--------------------10------|--H----|
D|-------|-------|-------|-------|--------10------------------|-------|
A|-------|-------|--3----|--H----|--/8-------8----------------|-------|
E|--5----|--H----|-------|-------|----------------------------|-------|


[CHORUS 2] (same as 1)

G|----------------------------|----------------------------|
D|----------------------------|----------------------------|
A|--3--3--3--3--3--3--3--3----|-----3--3--3--3--3--3--3----|
E|----------------------------|----------------------------|

G|----------------------------|----------------------------|
D|----------------------------|----------------------------|
A|----------------------------|----------------------------|
E|--3--3--3--3--3--3--3--3----|-----3--3--3--3--3--3--3----|

G|----------------------------|----------------------------|
D|----------------------------|----------------------------|
A|----------------------------|----------------------------|
E|--5--5--5--5--5--5--5--5----|-----5--5--5--5--5--5--5----|

G|----------------------------|----------------------------|
D|----------------------------|----------------------------|
A|----------------------------|----------------------------|
E|--1--1--1--1--1--1--1--1----|-----1--1--1--1--1--1--1----|

G|----------------------------|----------------------------|
D|----------------------------|----------------------------|
A|--3--3--3--3--3--3--3--3----|-----3--3--3--3--3--3--3----|
E|----------------------------|----------------------------|

G|----------------------------|----------------------------|
D|----------------------------|----------------------------|
A|----------------------------|----------------------------|
E|--3--3--3--3--3--3--3--3----|-----3--3--3--3--3--3--3----|

G|----------------------------|----------------------------|-------|-------||
D|----------------------------|----------------------------|-------|-------||
A|----------------------------|----------------------------|--8----|-Rest--||
E|--5--5--5--5--5--5--5--5----|-----5--5--5--5--5--5--5----|-------|-------||


[BRIDGE]

G|----------------------------|----------------------------|
D|----------------------------|----------------------------|
A|--3--3--3--3--3--2-----3----|--H--3--3--3--3--2----------|
E|----------------------------|-----------------------1----|

G|----------------------------|----------------------------||
D|----------------------------|----------------------------||
A|----------------------------|-----------------2-----3----||
E|--H--1--1--1--1--0-----3----|--H--3--3--3--3-------------||

G|---------------------------|----------------------------|
D|o--------------------------|----------------------------|
A|oH--3--3--3--3--2-----3----|--H--3--3--3--3--2----------|
E|---------------------------|-----------------------1----|

G|----------------------------|---------------------------||
D|----------------------------|--------------------------o|| x5
A|----------------------------|-----------------2-----3--o||
E|--H--1--1--1--1--0-----3----|--H--3--3--3--3------------||

G|----------------------------|----------------------------|
D|----------------------------|----------------------------|
A|--3--3--3--3--3--3--3--3----|--3--3--3--3--3--3--3--3----|
E|----------------------------|----------------------------|

G|----------------------------|----------------------------|
D|----------------------------|----------------------------|
A|--8--8--8--8--8--8--8--8----|--10-10-10-10-10-10-10-10---|
E|----------------------------|----------------------------|


[CHORUS 3]

G|-------|-------|-------|-------|
D|-------|-------|-------|-------|
A|-------|-------|-------|-------|
E|-------|-------|-------|-------|

G|----------------------------|----------------------------|
D|----------------------------|----------------------------|
A|----------------------------|----------------------------|
E|--5--5--5--5--5--5--5--5----|-----5--5--5--5--5--5--5----|

G|----------------------------|----------------------------|
D|----------------------------|----------------------------|
A|--8--8--8--8--8--8--8--8----|-----8--8--8--8--8--8--8----|
E|----------------------------|----------------------------|

G|----------------------------|----------------------------|
D|----------------------------|----------------------------|
A|--3--3--3--3--3--3--3--3----|-----3--3--3--3--3--3--3----|
E|----------------------------|----------------------------|

G|----------------------------|----------------------------|
D|----------------------------|----------------------------|
A|----------------------------|----------------------------|
E|--3--3--3--3--3--3--3--3----|-----3--3--3--3--3--3--3----|

G|----------------------------|----------------------------|-------|-------|
D|----------------------------|----------------------------|-------|-------|
A|----------------------------|----------------------------|-------|-------|
E|--5--5--5--5--5--5--5--5----|-----5--5--5--5--5--5--5----|--1----|-Rest--|


[OUTRO]

G|-------|-------|-------|-------|-------|-------|-------|-------|
D|-------|-------|-------|-------|-------|-------|-------|-------|
A|-------|-------|-------|-------|-------|-------|-------|-------|
E|-------|-------|-------|-------|-------|-------|-------|-------|

G|---------------------------|----------------------------|
D|o--------------------------|----------------------------|
A|o3--3--3--3--3--2--2--3----|--3--3--3--3--3--2--2-------|
E|---------------------------|-----------------------1----|

G|----------------------------|---------------------------||
D|----------------------------|--------------------------o|| x4
A|----------------------------|-----------------2--2--3--o||
E|--1--1--1--1--1--0--0--3----|--3--3--3--3--3------------||


************************************

| /  Slide up
| H  Hold last note

************************************
Suggest correction
Creating personal tab
Creating personal tab
You can edit any tab online and save it as your Personal.

You can edit, replace or remove any tab part or add personal notes – all changes will be seen only by you.

Personal tabs can be accessed anytime from any device, even offline.
Learn more »
Give kudos to tab author, rate the tab!
1 2 3 4 5
comments
print report bad tab
guest
You may want to rate the tab now too:
select rating
Wanna post a correction for this tab? Suggest correction