Oops, an error
Loading. Please wait.
We have an official Bored To Death tab made by UG professional guitarists. Check out the tab »
×

Bored To Death tab

version 3
version 3

Whole song

  • People have been doing have been doing acoustic ve... Show more
  • Fixed formatting with measure lines.

Interactive

Video

  • High quality, easy to follow video lesson.
1,933 views 6 this week
no commentswrite comment
1 2 3 4 5
2 more votes to show rating
add to favorites
×
Save as Personal and add changes to this tab that will be seen only by you. Learn more ›
×
You can save this tab as Personal to edit and correct it or add notes. All changes will be seen only by you. Learn more »
launch autoscroll
font size
0
reset
how to read this tab
guitar tuner
backing track
0:00
0:00
edit
Autoscroll
slow
fast
+/-
esc
set tempo
stop
Author
Difficulty
Song: Bored To Death
Album: California
Artist: Blink-182
Guitarist: Matt Skiba
Tabbed by: Red Hot Day


[Intro]

e|---------------------------------------------|
B|---------------------------------------------|
G|---------------------------------------------|
D|----2---2-----2-----2----2-----0-----------0-|
A|0-0--0-0--3-3---3-3-------------------3------|
E|----------------------1-1---1-1---1-1---1-1--|


[Verse]

e|---------------------------------------------|
B|---------------------------------------------|
G|---------------------------------------------|
D|----2---2-----2-----2----2-----0-----------0-|
A|0-0--0-0--3-3---3-3-------------------3------|
E|----------------------1-1---1-1---1-1---1-1--|

e|---------------------------------------------|
B|---------------------------------------------|
G|---------------------------------------------|
D|----2---2-----2-----2----2-----0-----------0-|
A|0-0--0-0--3-3---3-3-------------------3------|
E|----------------------1-1---1-1---1-1---1-1--|

e|---------------------------------------------|
B|---------------------------------------------|
G|---------------------------------------------|
D|----2---2-----2-----2----2-----0-----------0-|
A|0-0--0-0--3-3---3-3-------------------3------|
E|----------------------1-1---1-1---1-1---1-1--|

e|---------------------------------------------|
B|---------------------------------------------|
G|---------------------------------------------|
D|----2---2-----2-----2----2-----0-----------0-|
A|0-0--0-0--3-3---3-3-------------------3------|
E|----------------------1-1---1-1---1-1---1-1--|


[Pre-Chorus]

e|-----------------------------------------------|
B|-----------------------------------------------|
G|-----------------------------------------------|
D|----2-----2-----2-2-2-----5-----2-----2---3~~~-|
A|0-0---0-0---3-3--3-3---3-3---3-3--3-3---3------|
E|-----------------------------------------------|


[Chorus]

e|---------------------------------------------------------------------------------|
B|---------------------------------------------------------------------------------|
G|-5-5-5-5-5-5-5-5-5-5-------------------------------------------------------------|
D|-5-5-5-5-5-5-5-5-5-5-5-5-5-5-5-5-5-5-5-5--7-7-7-7-7-7-7-7-7-7-3-3-3-3-3-3-3-3-3-3|
A|-3-3-3-3-3-3-3-3-3-3-5-5-5-5-5-5-5-5-5-5--7-7-7-7-7-7-7-7-7-7-3-3-3-3-3-3-3-3-3-3|
E|---------------------3-3-3-3-3-3-3-3-3-3--5-5-5-5-5-5-5-5-5-5-1-1-1-1-1-1-1-1-1-1|

e|---------------------------------------------------------------------------------|
B|---------------------------------------------------------------------------------|
G|-5-5-5-5-5-5-5-5-5-5-------------------------------------------------------------|
D|-5-5-5-5-5-5-5-5-5-5-5-5-5-5-5-5-5-5-5-5--7-7-7-7-7-7-7-7-7-7-3~~~~~~~~~~~~~~~~~~|
A|-3-3-3-3-3-3-3-3-3-3-5-5-5-5-5-5-5-5-5-5--7-7-7-7-7-7-7-7-7-7-3~~~~~~~~~~~~~~~~~~|
E|---------------------3-3-3-3-3-3-3-3-3-3--5-5-5-5-5-5-5-5-5-5-1~~~~~~~~~~~~~~~~~~|


[Verse]

e|---------------------------------------------|
B|---------------------------------------------|
G|---------------------------------------------|
D|----2---2-----2-----2----2-----0-----------0-|
A|0-0--0-0--3-3---3-3-------------------3------|
E|----------------------1-1---1-1---1-1---1-1--|

e|---------------------------------------------|
B|---------------------------------------------|
G|---------------------------------------------|
D|----2---2-----2-----2----2-----0-----------0-|
A|0-0--0-0--3-3---3-3-------------------3------|
E|----------------------1-1---1-1---1-1---1-1--|

e|---------------------------------------------|
B|---------------------------------------------|
G|---------------------------------------------|
D|----2---2-----2-----2----2-----0-----------0-|
A|0-0--0-0--3-3---3-3-------------------3------|
E|----------------------1-1---1-1---1-1---1-1--|

e|---------------------------------------------|
B|---------------------------------------------|
G|---------------------------------------------|
D|----2---2-----2-----2----2-----0-----------0-|
A|0-0--0-0--3-3---3-3-------------------3------|
E|----------------------1-1---1-1---1-1---1-1--|


[Pre-Chorus]

e|-----------------------------------------------|
B|-----------------------------------------------|
G|-----------------------------------------------|
D|----2-----2-----2-2-2-----5-----2-----2---3~~~-|
A|0-0---0-0---3-3--3-3---3-3---3-3--3-3---3------|
E|-----------------------------------------------|


[Chorus]

e|---------------------------------------------------------------------------------|
B|---------------------------------------------------------------------------------|
G|-5-5-5-5-5-5-5-5-5-5-------------------------------------------------------------|
D|-5-5-5-5-5-5-5-5-5-5-5-5-5-5-5-5-5-5-5-5--7-7-7-7-7-7-7-7-7-7-3-3-3-3-3-3-3-3-3-3|
A|-3-3-3-3-3-3-3-3-3-3-5-5-5-5-5-5-5-5-5-5--7-7-7-7-7-7-7-7-7-7-3-3-3-3-3-3-3-3-3-3|
E|---------------------3-3-3-3-3-3-3-3-3-3--5-5-5-5-5-5-5-5-5-5-1-1-1-1-1-1-1-1-1-1|

e|---------------------------------------------------------------------------------|
B|---------------------------------------------------------------------------------|
G|-5-5-5-5-5-5-5-5-5-5-------------------------------------------------------------|
D|-5-5-5-5-5-5-5-5-5-5-5-5-5-5-5-5-5-5-5-5--7-7-7-7-7-7-7-7-7-7-3~~~~~~~~~~~~~~~~~~|
A|-3-3-3-3-3-3-3-3-3-3-5-5-5-5-5-5-5-5-5-5--7-7-7-7-7-7-7-7-7-7-3~~~~~~~~~~~~~~~~~~|
E|---------------------3-3-3-3-3-3-3-3-3-3--5-5-5-5-5-5-5-5-5-5-1~~~~~~~~~~~~~~~~~~|


[Post-Chrous/Verse]

e|--------------------------------------------------------|
B|--------------------------------------------------------|
G|--------------------------------------------------------|
D|5-5-5-5-5-5-5-5-5-5-------------------------------------|
A|3-3-3-3-3-3-3-3-3-3-3-3-3-3-3-3-5-5-5-5-5-5-------------|
E|--------------------1-1-1-1-1-1-3-3-3-3-3-3-------------|
P.M. *****************************************************

e|--------------------------------------------------------|
B|--------------------------------------------------------|
G|--------------------------------------------------------|
D|5-5-5-5-5-5-5-5-5-5-------------------------------------|
A|3-3-3-3-3-3-3-3-3-3-3-3-3-3-3-3-5-5-5-5-5-5-------------|
E|--------------------1-1-1-1-1-1-3-3-3-3-3-3-------------|
P.M. *****************************************************

e|--------------------------------------------------------|
B|--------------------------------------------------------|
G|--------------------------------------------------------|
D|5-5-5-5-5-5-5-5-5-5-------------------------------------|
A|3-3-3-3-3-3-3-3-3-3-3-3-3-3-3-3-5-5-5-5-5-5-------------|
E|--------------------1-1-1-1-1-1-3-3-3-3-3-3-------------|
P.M. *****************************************************

e|--------------------------------------------------------|
B|--------------------------------------------------------|
G|--------------------------------------------------------|
D|5-5-5-5-5-5-5-5-5-5-------------------------------------|
A|3-3-3-3-3-3-3-3-3-3-3-3-3-3-3-3-5-5-5-5-5-5-------------|
E|--------------------1-1-1-1-1-1-3-3-3-3-3-3-------------|
P.M. *****************************************************

e|--------------------------------------------------------|
B|--------------------------------------------------------|
G|--------------------------------------------------------|
D|5-5-5-5-5-5-5-5-5-5-------------------------------------|
A|3-3-3-3-3-3-3-3-3-3-3-3-3-3-3-3-5-5-5-5-5-5-------------|
E|--------------------1-1-1-1-1-1-3-3-3-3-3-3-------------|
P.M. *****************************************************

e|--------------------------------------------------------|
B|--------------------------------------------------------|
G|--------------------------------------------------------|
D|5-5-5-5-5-5-5-5-5-5-------------------------------------|
A|3-3-3-3-3-3-3-3-3-3-3-3-3-3-3-3-5-5-5-5-5-5-------------|
E|--------------------1-1-1-1-1-1-3-3-3-3-3-3-------------|
P.M. *****************************************************

e|------------------------------|
B|------------------------------|
G|5-5-5-5-5-5-5-5-5-5-5-5-5-5-5-|
D|------------------------------|
A|3-3-3-3-3-3-3-3-3-3-3-3-3-3-3-|
E|------------------------------|


[Break]

(Chorus with muted chords) (02:45-02:51)

e|---------------------------------------------------------------------------------|
B|---------------------------------------------------------------------------------|
G|-5-5-x-x-x-5-5-5-x-5-------------------------------------------------------------|
D|-5-5-x-x-x-5-5-5-x-5-5-5-x-x-x-5-5-5-x-5--7-7-7-7-7-7-7-7-7-7-3-3-3-3-3-3-3-3-3-3|
A|-3-3-x-x-x-3-3-3-x-3-5-5-x-x-x-5-5-5-x-5--7-7-7-7-7-7-7-7-7-7-3-3-3-3-3-3-3-3-3-3|
E|---------------------3-3-x-x-x-3-3-3-x-3--5-5-5-5-5-5-5-5-5-5-1-1-1-1-1-1-1-1-1-1|

e|---------------------------------------------------------------------------------|
B|---------------------------------------------------------------------------------|
G|-5-5-5-5-5-5-5-5-5-5-------------------------------------------------------------|
D|-5-5-5-5-5-5-5-5-5-5-5-5-5-5-5-5-5-5-5-5--7-7-7-7-7-7-7-7-7-7-3~~~~~~~~~~~~~~~~~~|
A|-3-3-3-3-3-3-3-3-3-3-5-5-5-5-5-5-5-5-5-5--7-7-7-7-7-7-7-7-7-7-3~~~~~~~~~~~~~~~~~~|
E|---------------------3-3-3-3-3-3-3-3-3-3--5-5-5-5-5-5-5-5-5-5-1////////////////12|


[Outro]

e|--------------------------------------------------------|
B|--------------------------------------------------------|
G|--------------------------------------------------------|
D|5-5-5-5-5-5-5-5-5-5-------------------------------------|
A|3-3-3-3-3-3-3-3-3-3-3-3-3-3-3-3-5-5-5-5-5-5-------------|
E|--------------------1-1-1-1-1-1-3-3-3-3-3-3-------------|
P.M. *****************************************************

e|--------------------------------------------------------|
B|--------------------------------------------------------|
G|--------------------------------------------------------|
D|5-5-5-5-5-5-5-5-5-5-------------------------------------|
A|3-3-3-3-3-3-3-3-3-3-3-3-3-3-3-3-5-5-5-5-5-5-------------|
E|--------------------1-1-1-1-1-1-3-3-3-3-3-3-------------|
P.M. *****************************************************

e|--------------------------------------------------------|
B|--------------------------------------------------------|
G|--------------------------------------------------------|
D|5-5-5-5-5-5-5-5-5-5-------------------------------------|
A|3-3-3-3-3-3-3-3-3-3-3-3-3-3-3-3-5-5-5-5-5-5-------------|
E|--------------------1-1-1-1-1-1-3-3-3-3-3-3-------------|
P.M. *****************************************************

e|--------------------------------------------------------|
B|--------------------------------------------------------|
G|--------------------------------------------------------|
D|5-5-5-5-5-5-5-5-5-5-------------------------------------|
A|3-3-3-3-3-3-3-3-3-3-3-3-3-3-3-3-5-5-5-5-5-5-------------|
E|--------------------1-1-1-1-1-1-3-3-3-3-3-3-------------|
P.M. *****************************************************

e|--------------------------------------------------------|
B|--------------------------------------------------------|
G|5-5-5-5-5-5-5-5-5-5-------------------------------------|
D|5-5-5-5-5-5-5-5-5-5-3-3-3-3-3-3-5-5-5-5-5-5-------------|
A|3-3-3-3-3-3-3-3-3-3-3-3-3-3-3-3-5-5-5-5-5-5-------------|
E|--------------------1-1-1-1-1-1-3-3-3-3-3-3-------------|

e|--------------------------------------------------------|
B|--------------------------------------------------------|
G|5-5-5-5-5-5-5-5-5-5-------------------------5~~~~~~-----|
D|5-5-5-5-5-5-5-5-5-5-3-3-3-3-3-3-5-5-5-5-5-5-5~~~~~~-----|
A|3-3-3-3-3-3-3-3-3-3-3-3-3-3-3-3-5-5-5-5-5-5-3~~~~~~-----|
E|--------------------1-1-1-1-1-1-3-3-3-3-3-3-------------|


[Background Guitar Outro]

e|-----------------------------------------------|
B|-----------------------------------------------|
G|7/9-9-9-9-9-7/9-9-9-9-9-4/5-5-5-5-5-4/7-7-7-7-7|
D|-----------------------------------------------|
A|5/7-7-7-7-7-5/7-7-7-7-7-2/3-3-3-3-3-2/5-5-5-5-5|
E|-----------------------------------------------|

e|-----------------------------------------------|
B|-----------------------------------------------|
G|7/9-9-9-9-9-7/9-9-9-9-9-4/5-5-5-5-5-4/7-7-7-7-7|
D|-----------------------------------------------|
A|5/7-7-7-7-7-5/7-7-7-7-7-2/3-3-3-3-3-2/5-5-5-5-5|
E|-----------------------------------------------|

e|-------|
B|-------|
G|7/9~~~~|
D|---~~~~|
A|5/7~~~~|
E|-------|



************************************

| x  Dead note
| /  Slide up
| ~  Vibrato

************************************

            
            
Suggest correction
Creating personal tab
Creating personal tab
You can edit any tab online and save it as your Personal.

You can edit, replace or remove any tab part or add personal notes – all changes will be seen only by you.

Personal tabs can be accessed anytime from any device, even offline.
Learn more »
Give kudos to tab author, rate the tab!
1 2 3 4 5
comments
print report bad tab
guest
You may want to rate the tab now too:
select rating
Wanna post a correction for this tab? Suggest correction