Oops, an error
Loading. Please wait.
We have an official Bored To Death tab made by UG professional guitarists. Check out the tab »
×
3,841 views 21 this week
no commentswrite comment
1 2 3 4 5
x 11
add to favorites
×
Save as Personal and add changes to this tab that will be seen only by you. Learn more ›
×
You can save this tab as Personal to edit and correct it or add notes. All changes will be seen only by you. Learn more »
launch autoscroll
font size
0
reset
guitar tuner
backing track
0:00
0:00
edit
Autoscroll
slow
fast
+/-
esc
set tempo
stop
Author
Tabbed by: JimBlenderBR



r = let it ring



[INTRO]


G|-------------|
D|-------------|
A|--No Bass----|
E|-------------|



[VERSE 1]


G|--------------------------|--------------------------|--------------------------|--------------------------|
D|--------------------------|--------------------------|--------------------------|--------------------------|
A|--0--0--0--0--0--0--0--0--|--3--3--3--3--3--3--3--3--|--8--8--8--8--8--8--8--8--|--8--8--8--8--8--8--8--8--|
E|--------------------------|--------------------------|--------------------------|--------------------------|


G|--------------------------|--------------------------|--------------------------|--------------------------|
D|--------------------------|--------------------------|--------------------------|--------------------------|
A|--0--0--0--0--0--0--0--0--|--3--3--3--3--3--3--3--3--|--------------------------|--------------------------|
E|--------------------------|--------------------------|--1--1--1--1--1--1--1--1--|--1--1--1--1--1--1--1--1--|


G|--------------------------|--------------------------|--------------------------|--------------------------|
D|--------------------------|--------------------------|--------------------------|--------------------------|
A|--0--0--0--0--0--0--0--0--|--3--3--3--3--3--3--3--3--|--8--8--8--8--8--8--8--8--|--8--8--8--8--8--8--8--8--|
E|--------------------------|--------------------------|--------------------------|--------------------------|


G|--------------------------|--------------------------|--------------------------|--------------------------|
D|--------------------------|--------------------------|--------------------------|--------------------------|
A|--0--0--0--0--0--0--0--0--|--3--3--3--3--3--3--3--3--|--------------------------|--------------------------|
E|--------------------------|--------------------------|--1--1--1--1--1--1--1--1--|--1--1--1--1--1--1--1--1--|



[PRE-CHORUS 1]


G|--------------------------|--------------------------|--------------------------|--------------------------|
D|--------------------------|--------------------------|--------------------------|--------------------------|
A|--0r----------------------|--Rest--------------------|--3r----------------------|--Rest--------------------|
E|--------------------------|--------------------------|--------------------------|--------------------------|

G|--------------------------|
D|--------7/10--------------|
A|--3/8----------8---\3-----|
E|--------------------------|



[CHORUS 1]


G|--------------------------|--------------------------|--------------------------|--------------------------|
D|--------------------------|--------------------------|--------------------------|--------------------------|
A|--3--3--3--3--3--3--3--3--|--3--3--3--3--3--3--3--3--|--------------------------|--------------------------|
E|--------------------------|--------------------------|--3--3--3--3--3--3--3--3--|--3--3--3--3--3--3--3--3--|


G|--------------------------|--------------------------|--------------------------|--------------------------|
D|--------------------------|--------------------------|--------------------------|--------------------------|
A|--------------------------|--------------------------|--------------------------|--------------------------|
E|--5--5--5--5--5--5--5--5--|--5--5--5--5--5--5--5--5--|--1--1--1--1--1--1--1--1--|--1--1--1--1--1--1--1--1--|


G|--------------------------|--------------------------|--------------------------|--------------------------|
D|--------------------------|--------------------------|--------------------------|--------------------------|
A|--3--3--3--3--3--3--3--3--|--3--3--3--3--3--3--3--3--|--------------------------|--------------------------|
E|--------------------------|--------------------------|--3--3--3--3--3--3--3--3--|--3--3--3--3--3--3--3--3--|


G|--------------------------|--------------------------|--------------------------|--------------------------|
D|--------------------------|--------------------------|--------------------------|--------------------------|
A|--------------------------|--------------------------|--8r----------------------|--Rest--------------------|
E|--5--5--5--5--5--5--5--5--|--5--5--5--5--5--5--5--5--|--------------------------|--------------------------|



[VERSE 2] 

G|--------------------------|--------------------------|--------------------------|--------------------------|
D|--------------------------|--------------------------|--------------------------|--------------------------|
A|--0--0--0--0--0--0--0--0--|--3--3--3--3--3--3--3--3--|--8--8--8--8--8--8--8--8--|--8--8--8--8--8--8--8--8--|
E|--------------------------|--------------------------|--------------------------|--------------------------|


G|--------------------------|--------------------------|--------------------------|--------------------------|
D|--------------------------|--------------------------|--------------------------|--------------------------|
A|--0--0--0--0--0--0--0--0--|--3--3--3--3--3--3--3--3--|--------------------------|--------------------------|
E|--------------------------|--------------------------|--1--1--1--1--1--1--1--1--|--1--1--1--1--1--1--1--1--|


G|--------------------------|--------------------------|--------------------------|--------------------------|
D|--------------------------|--------------------------|--------------------------|--------------------------|
A|--0--0--0--0--0--0--0--0--|--3--3--3--3--3--3--3--3--|--8--8--8--8--8--8--8--8--|--8--8--8--8--8--8--8--8--|
E|--------------------------|--------------------------|--------------------------|--------------------------|


G|--------------------------|--------------------------|--------------------------|--------------------------|
D|--------------------------|--------------------------|--------------------------|--------------------------|
A|--0--0--0--0--0--0--0--0--|--3--3--3--3--3--3--3--3--|--------------------------|--------------------------|
E|--------------------------|--------------------------|--1--1--1--1--1--1--1--1--|--1--1--1--1--1--1--1--1--|



[PRE-CHORUS 2] 


G|--------------------------|--------------------------|--------------------------|--------------------------|
D|--------------------------|--------------------------|--------------------------|--------------------------|
A|--0r----------------------|--Rest--------------------|--3r----------------------|--Rest--------------------|
E|--------------------------|--------------------------|--------------------------|--------------------------|

G|--------------------------|
D|--------7/10--------------|
A|--3/8----------8---\3-----|
E|--------------------------|



[CHORUS 2] 


G|--------------------------|--------------------------|--------------------------|--------------------------|
D|--------------------------|--------------------------|--------------------------|--------------------------|
A|--3--3--3--3--3--3--3--3--|--3--3--3--3--3--3--3--3--|--------------------------|--------------------------|
E|--------------------------|--------------------------|--3--3--3--3--3--3--3--3--|--3--3--3--3--3--3--3--3--|


G|--------------------------|--------------------------|--------------------------|--------------------------|
D|--------------------------|--------------------------|--------------------------|--------------------------|
A|--------------------------|--------------------------|--------------------------|--------------------------|
E|--5--5--5--5--5--5--5--5--|--5--5--5--5--5--5--5--5--|--1--1--1--1--1--1--1--1--|--1--1--1--1--1--1--1--1--|


G|--------------------------|--------------------------|--------------------------|--------------------------|
D|--------------------------|--------------------------|--------------------------|--------------------------|
A|--3--3--3--3--3--3--3--3--|--3--3--3--3--3--3--3--3--|--------------------------|--------------------------|
E|--------------------------|--------------------------|--3--3--3--3--3--3--3--3--|--3--3--3--3--3--3--3--3--|


G|--------------------------|--------------------------|--------------------------|--------------------------|
D|--------------------------|--------------------------|--------------------------|--------------------------|
A|--------------------------|--------------------------|--8r----------------------|--Rest--------------------|
E|--5--5--5--5--5--5--5--5--|--5--5--5--5--5--5--5--5--|--------------------------|--------------------------|



[BRIDGE] 

G|------------------------|------------------------|------------------------|------------------------|
D|------------------------|------------------------|------------------------|------------------------|
A|-3--3--3--3--3--2--2--2-|-3--3--3--3--3----------|------------------------|----------------2--2--2-|  x6
E|------------------------|----------------0--0--0-|-1--1--1--1--1--0--0--0-|-3--3--3--3--3----------|


G|------------------------|------------------------|------------------------|--------------------------------|
D|------------------------|------------------------|------------------------|--------------------------------|
A|-3--3--3--3--3--3--3--3-|-3--3--3--3--3--3--3--3-|-8--8--8--8--8--8--8--8-|-10--10--10--10--10--10--10--10-|
E|------------------------|------------------------|------------------------|--------------------------------|



[CHORUS 3]

G|--------------------------|--------------------------|--------------------------|--------------------------|
D|--------------------------|--------------------------|--------------------------|--------------------------|
A|--------Rest--------------|--------Rest--------------|--------Rest--------------|--------Rest--------------|
E|--------------------------|--------------------------|--------------------------|--------------------------|


G|--------------------------|--------------------------|--------------------------|--------------------------|
D|--------------------------|--------------------------|--------------------------|--------------------------|
A|--------------------------|--------------------------|--8--8--8--8--8--8--8--8--|--8--8--8--8--8--8--8--8--|
E|--5--5--5--5--5--5--5--5--|--5--5--5--5--5--5--5--5--|--------------------------|--------------------------|


G|--------------------------|--------------------------|--------------------------|--------------------------|
D|--------------------------|--------------------------|--------------------------|--------------------------|
A|--3--3--3--3--3--3--3--3--|--3--3--3--3--3--3--3--3--|--------------------------|--------------------------|
E|--------------------------|--------------------------|--3--3--3--3--3--3--3--3--|--3--3--3--3--3--3--3--3--|


G|--------------------------|--------------------------|--------------------------|--------------------------|
D|--------------------------|--------------------------|--------------------------|--------------------------|
A|--------------------------|--------------------------|--8r----------------------|--Rest--------------------|
E|--5--5--5--5--5--5--5--5--|--5--5--5--5--5--5--5--5--|--------------------------|--------------------------|



[OUTRO]

G|------------------------|------------------------|------------------------|------------------------|
D|------------------------|------------------------|------------------------|------------------------|
A|------Rest--------------|--------Rest------------|--------Rest------------|--------Rest------------| x2
E|------------------------|------------------------|------------------------|------------------------|


G|------------------------|------------------------|------------------------|------------------------|
D|------------------------|------------------------|------------------------|------------------------|
A|-3--3--3--3--3--2--2--2-|-3--3--3--3--3----------|------------------------|----------------2--2--2-|  x4
E|------------------------|----------------0--0--0-|-1--1--1--1--1--0--0--0-|-3--3--3--3--3----------|



[END NOTE]

G|------|
D|--5r--|
A|--3r--|
E|------|


            
            
Suggest correction
Creating personal tab
Creating personal tab
You can edit any tab online and save it as your Personal.

You can edit, replace or remove any tab part or add personal notes – all changes will be seen only by you.

Personal tabs can be accessed anytime from any device, even offline.
Learn more »
comments
print report bad tab
guest
You may want to rate the tab now too:
select rating
Wanna post a correction for this tab? Suggest correction