Oops, an error
Loading. Please wait.
We have an official Brohemian Rhapsody tab made by UG professional guitarists. Check out the tab »
×
6,263 views 39 this week
1 commentread comment
1 2 3 4 5
x 21
add to favorites
×
Save as Personal and add changes to this tab that will be seen only by you. Learn more ›
×
You can save this tab as Personal to edit and correct it or add notes. All changes will be seen only by you. Learn more »
launch autoscroll
font size
0
reset
how to read this tab
guitar tuner
edit
Autoscroll
slow
fast
+/-
esc
set tempo
stop
Author
Difficulty
I saw this original tab on a youtube video, but I saw it hadn't been adapted and posted here now that the 
album leaked. 

Original video: https://www.youtube.com/watch?v=NZ2Zafzqeko

I don't take credit for the majority of this. I made very small changes but all credit goes to the guy who
made the video.

Enjoy!

Song: Brohemian Rhapsody
Artist: Blink-182
Album: California

Tuning: Standard


| / = slide up
| \ = slide down
| h = hammer-on
| p = pull-off
| ~ = let note ring
| + = harmonic
| x = Mute note



[Intro]

e|---------------------------------------------------------------------------|
B|---------------------------------------------------------------------------|
G|-5-5----5-5-5----5-5-5----5-5-5----5-9-9----9-9-9----9-9-9----9-9-9--------|
D|-x-x----x-x-x----x-x-x----x-x-x----x-x-x----x-x-x----x-x-x----x-x-x--------|
A|-3-3----3-3-3----3-3-3----3-3-3----3-7-7----7-7-7----7-7-7----7-7-7--------|
E|---------------------------------------------------------------------------|

e|---------------------------------------------------------------------------|
B|---------------------------------------------------------------------------|
G|-9-12-12----12-12-12----12-12-12----12-12----------------------------------|
D|-x-x--x-----x--x--x-----x--x--x-----x--x-----------------------------------|
A|-7-10-10----10-10-10----10-10-10----10-10----------------------------------|
E|---------------------------------------------------------------------------|


[Verse]

e|------------------------------------------------|
B|------------------------------------------------|
G|-5----------------------------------------------|
D|-5-5-3-------3-5--7-7-7-7-7-7-7-7-5-5-5-5-5-----|
A|-3-5-3-------3-5--7-7-7-7-7-7-7-7-5-5-5-5-5-----|
E|---3-1-------1-3--5-5-5-5-5-5-5-5-3-5-3-3-3-----|
                    x x x x       

[Verse Pt. 2] (x3)

e|-12-8-8-10-8-8-12-8-8-10-8-8-12-8-10-8-------------------------------------|  
B|---------------------------------------------------------------------------|
G|---------------------------------------------------------------------------|
D|---------------------------------------------------------------------------|
A|---------------------------------------------------------------------------|
E|---------------------------------------------------------------------------|


[Verse Pt. 3]

e|-12-8-8-10-8-8-12-8-8-10-8-8-----------------------------------------------|  
B|---------------------------------------------------------------------------|
G|---------------------------------------------------------------------------|
D|---------------------------------------------------------------------------|
A|---------------------------------------------------------------------------|
E|---------------------------------------------------------------------------|


[Chorus]

e|---------------------------------------------------------------------------|
B|---------------------------------------------------------------------------|
G|--5------------------------------------------------------------------------|
D|--5--5--3----7-7--5-------------------------------------------------------|
A|--3--5--3----7-7--5-------------------------------------------------------|
E|-----3--1----5-5--3-------------------------------------------------------|

Suggest correction
Creating personal tab
Creating personal tab
You can edit any tab online and save it as your Personal.

You can edit, replace or remove any tab part or add personal notes – all changes will be seen only by you.

Personal tabs can be accessed anytime from any device, even offline.
Learn more »
comments
print report bad tab
1 comment total.
+1 reply
blindspoTTTT 10 Jul 03, 2016 03:09 PM

Awesome! Thanks for posting!

guest
You may want to rate the tab now too:
select rating
Wanna post a correction for this tab? Suggest correction