Oops, an error
Loading. Please wait.
We have an official Carousel tab made by UG professional guitarists. Check out the tab »
×
166 views 1 this week
no commentswrite comment
1 2 3 4 5
2 more votes to show rating
add to favorites
×
Save as Personal and add changes to this tab that will be seen only by you. Learn more ›
×
You can save this tab as Personal to edit and correct it or add notes. All changes will be seen only by you. Learn more »
launch autoscroll
font size
0
reset
how to read this tab
guitar tuner
edit
Autoscroll
slow
fast
+/-
esc
set tempo
stop
Author
Difficulty
Song: Carousel
Band: Blink-182
Tuning: Standard
Albums: Cheshire Cat/The Mark, Tom and Travis Show


[Intro] for original Cheshire Cat recording

e|------------------------------------------------------------------------------|
B|------------------------------------------------------------------------------|
G|------------------------------------------------------------------------------|
D|-77777777777777-4h5-555-4-2--2-2222222-44444444444444-4h5-555-4-2-------------|
A|-55555555555555--------------0-0000000-22222222222222-------------5-5555555---|
E|------------------------------------------------------------------3-3333333---|
   **************                ******* **************               *******
e|------------------------------------------------------------------------------|
B|------------------------------------------------------------------------------|
G|------------------------------------------------------------------------------|
D|-77777777777777-4h5-555-4-2--2-2222222-44444444444444-4h5-555-4-2-------------|
A|-55555555555555--------------0-0000000-22222222222222-------------5-55555-4h5-|
E|------------------------------------------------------------------3-33333-----|
   **************                ******* **************               *****


[Bass Intro] For Guitar

e|------------------------------------------------------------------------------|
B|------------------------------------------------------------------------------|
G|------------------------------------------------------------------------------|
D|----44-5-7-5-4----------------------------------------------------------------|
A|--5------------5----44-5-7-5-4------77-9-10-9-7-9--------5-----5---5----------|
E|------------------5------------5--7------------------3-3---3-3---3------------|

e|------------------------------------------------------------------------------|
B|------------------------------------------------------------------------------|
G|------------------------------------------------------------------------------|
D|----44-5-7-5-4----------------------------------------------------------------|
A|--5------------5----44-5-7-5-4------77-9-10-10-9-9---5-5-5-5-5-5-5-5----------|
E|------------------5------------5--7------------------3-3-3-3-3-3-3-3----------|


[Clean]

e|------------------------------------------------------------------------------|
B|------------------------------------------------------------------------------|
G|--xx77-------------------------xxxx77-----------------------------------------|
D|--xx77-xxxx77-xxxx99-xxxx55----xxxx77-xxxx77-xxxx99-xxxx55--------------------|
A|-------xxxx77-xxxx99-xxxx55-----------xxxx77-xxxx99-xxxx55--------------------|
E|------------------------------------------------------------------------------|

e|------------------------------------------------------------------------------|
B|------------------------------------------------------------------------------|
G|--xxxx77-xxxx99-xxxx1111--xxxx77-----xxxx77-----------------------------------|
D|--xxxx77-xxxx99-xxxx1111--xxxx77-----xxxx77-xxxx77-xxxx99-xxxx55--------------|
A|--------------------------------------------xxxx77-xxxx99-xxxx55--------------|
E|------------------------------------------------------------------------------|


[Distorted Intro]

e|------------------------------------------------------------------------------|
B|------------------------------------------------------------------------------|
G|------------------------------------------------------------------------------| 10's and 12's,not
D|-77777777-------------------1212121212121212----------------------------------| 1's, 2's and 0's
A|-55555555-77777777-99999999-1010101010101010----------------------------------|
E|----------55555555-77777777---------------------------------------------------|

e|------------------------------------------------------------------------------|
B|------------------------------------------------------------------------------|
G|------------------------------------------------------------------------------|
D|-77777777---------------------------------------------------------------------|
A|-55555555-77777777-99999999-555555--------------------------------------------|
E|----------55555555-77777777-333333--------------------------------------------|


[Lead 1]

e|------------------------------------------------------------------------------|
B|------------------------------------------------------------------------------|
G|------------------------------------------------------------------------------|
D|------------------------------------------------------------------------------|
A|--4-5----4-5-5-5-5-55--77-55-44-5----4-5-55--7-4-5---7-5-4-0------------------|
E|------------------------------------------------------------------------------|


[Lead 2]

e|------------------------------------------------------------------------------|
B|------------------------------------------------------------------------------|
G|------------------------------------------------------------------------------|
D|--4-444-55--4-4444444---4-444-55--77-55-44-22---------------------------------|
A|------------------------------------------------------------------------------|
E|------------------------------------------------------------------------------|

e|------------------------------------------------------------------------------|
B|------------------------------------------------------------------------------|
G|------------------------------------------------------------------------------|
D|--4-444-55--4-4444442p0---4-0-5-0--7-5-4-0----2-4--5-4-2-0--------------------|
A|------------------------------------------------------------------------------|
E|------------------------------------------------------------------------------|


[Verse]

e|------------------------------------------------------------------------------|
B|------------------------------------------------------------------------------|
G|------------------------------------------------------------------------------|x4
D|--777777777--22222222--44444444-----------------------------------------------|
A|--555555555--00000000--22222222--555555555------------------------------------|
E|---------------------------------333333333------------------------------------|


[Verse Lead] (Comes in half way through verse)

e|------------------------------------------------------------------------------|
B|------------------------------------------------------------------------------|
G|-11--11--11---9--9--9---11--11--11---7--7--7----------------------------------|
D|---00--00--0---77-77-7----99--99--9---55-55-5---------------------------------|x2
A|------------------------------------------------------------------------------|
E|------------------------------------------------------------------------------|


[Chorus]

e|------------------------------------------------------------------------------|
B|------------------------------------------------------------------------------|
G|------------------------------------------------------------------------------|
D|-77777777--99999999-----------------------------------------------------------|x3
A|-55555555--77777777--77777777--55555555---------------------------------------|
E|---------------------55555555--33333333---------------------------------------|

e|------------------------------------------------------------------------------|
B|------------------------------------------------------------------------------|
G|------------------------------------------------------------------------------|
D|-77777777--99999999-----------------------------------------------------------|x1
A|-55555555--77777777-----7-----5-5-5-5-----------------------------------------|
E|------------------------5-----3-3-3-3-----------------------------------------|


[Lead 2]

e|------------------------------------------------------------------------------|
B|------------------------------------------------------------------------------|
G|------------------------------------------------------------------------------|
D|--4-444-55--4-4444444---4-444-55--77-55-44-22---------------------------------|
A|------------------------------------------------------------------------------|
E|------------------------------------------------------------------------------|

e|------------------------------------------------------------------------------|
B|------------------------------------------------------------------------------|
G|------------------------------------------------------------------------------|
D|--4-444-55--4-4444442p0---4-0-5-0--7-5-4-0----2-4--5-4-2-0--------------------|
A|------------------------------------------------------------------------------|
E|------------------------------------------------------------------------------|


[2nd Verse]

e|------------------------------------------------------------------------------|
B|------------------------------------------------------------------------------|
G|------------------------------------------------------------------------------|x2
D|--777777777--22222222--44444444-----------------------------------------------|
A|--555555555--00000000--22222222--555555555------------------------------------|
E|---------------------------------333333333------------------------------------|

e|------------------------------------------------------------------------------|
B|------------------------------------------------------------------------------|
G|------------------------------------------------------------------------------|
D|--7----Ring Out---------------------------------------------------------------|
A|--5---------------------------------------------------------------------------|
E|------------------------------------------------------------------------------|


[Interlude]

e|------------------------------------------------------------------------------|
B|------------------------------------------------------------------------------|
G|------------------------------------------------------------------------------|
D|----4-5-7-5-4-----------------------------------------------------------------|x4
A|--5-----------5-----4-5-7-5-4-------6-7-9-7-6-------2-3-5-3-2-----------------|
E|------------------5-----------5---7-----------7---3-----------3---------------|


[Final Chorus]

e|------------------------------------------------------------------------------|
B|------------------------------------------------------------------------------|
G|------------------------------------------------------------------------------|
D|-77777777--99999999-----------------------------------------------------------|x3
A|-55555555--77777777--77777777--55555555---------------------------------------|
E|---------------------55555555--33333333---------------------------------------|

e|------------------------------------------------------------------------------|
B|------------------------------------------------------------------------------|
G|------------------------------------------------------------------------------|
D|-77777777--99999999-----------------------------------------------------------|x1
A|-55555555--77777777-----7-----5-5-5-5-----------------------------------------|
E|------------------------5-----3-3-3-3-----------------------------------------|

e|------------------------------------------------------------------------------|
B|------------------------------------------------------------------------------|
G|------------------------------------------------------------------------------|
D|--7----Ring Out---------------------------------------------------------------|
A|--5---------------------------------------------------------------------------|
E|------------------------------------------------------------------------------|



************************************

| x  Dead note
| h  Hammer-on
| p  Pull-off
| *  Palm Mute  

************************************
Suggest correction
Creating personal tab
Creating personal tab
You can edit any tab online and save it as your Personal.

You can edit, replace or remove any tab part or add personal notes – all changes will be seen only by you.

Personal tabs can be accessed anytime from any device, even offline.
Learn more »
Give kudos to tab author, rate the tab!
1 2 3 4 5
comments
print report bad tab
guest
You may want to rate the tab now too:
select rating
Wanna post a correction for this tab? Suggest correction