Oops, an error
Loading. Please wait.

Carousel Bass Tab

336,168 views 204 this week
67 commentsread comments
1 2 3 4 5
x 164
add to favorites
launch autoscroll
font size
0
reset
guitar tuner
Autoscroll
slow
fast
+/-
esc
set tempo
stop
Help us to improve Ultimate-Guitar.com Take our survey!
×
Carousel
Blink-182
This was tabbed by: Blinker27
E-Mail - BLinkeR 37@aol.com


[Intro]

G|--11-11--12--14--12-11---------6-6--7--9--7--6---|
D|-0---------------------12----7-----------------7-|
A|-------------------------------------------------|
E|-------------------------------------------------|


G|--9-9-11-12-11-9-11------7-----7---7-|
D|-9-------------------5-5---5-5---5---|
A|-------------------------------------|
E|-------------------------------------|


G|--11-11--12--14--12-11---------6-6--7--9--7--6---|
D|-0---------------------12----7-----------------7-|
A|-------------------------------------------------|
E|-------------------------------------------------|

THE CHORDS ARE PLAYED WAY MORE TIMES, BUT IT WOULD TAKE TOO LONG TO
G|---9-9-11-12-12-11-11--77777777-11-11-11-11-9999-11-11-11-11-|LIST
D|-9---------------------55555555-0--0--0--0--7777-9--9--9--9--|THEM
A|-------------------------------------------------------------|ALL
E|-------------------------------------------------------------|


G|--7777|
D|--5555|
A|------|
E|------|


G|---------------------------------------|
D|---------------------------------------|
A|-55555555------------------------------|
E|-----------55555555--77777777--33333333|

(Guitar comes in and plays some slow distorted stuff before the big
guitar bridge and the bass does this)
G|-11-11-11-11-11-11-11-11--99999999--11-11-11-11-11-11--77777777|
D|---------------------------------------------------------------|
A|---------------------------------------------------------------|
E|---------------------------------------------------------------|


[Bridge]

G|---------------------------------------------------|
D|---------------------------------------------------|
A|-55555555-7----------------------10-10-10-10--9--7-|
E|------------55555555--77777777-9-------------------|


G|---------------------------------------------------|
D|---------------------------------------------------|
A|-55555555-7----------------------10-10-10-10--9--7-|
E|------------55555555-7--33333333-------------------|


[Verse] X4

G|------------------------------------------------------------|
D|------------------------------------------------------------|
A|--55555555--------------------10-10-10-10-10-10-10-10-10-10-|
E|------------55555555-77777777-------------------------------|


[Chorus] X4

G|-----------------------------------|
D|-----------------------------------|
A|-55555555--77777777--12-x8---10----|x8
E|-----------------------------------|


[Bridge]

G|---------------------------------------------------|
D|---------------------------------------------------|
A|-55555555-7----------------------10-10-10-10--9--7-|
E|------------55555555--77777777-9-------------------|

G|---------------------------------------------------|
D|---------------------------------------------------|
A|-55555555-7----------------------10-10-10-10--9--7-|
E|------------55555555-7--33333333-------------------|

 
[Verse] X4

G|------------------------------------------------------------|
D|------------------------------------------------------------|
A|--55555555--------------------10-10-10-10-10-10-10-10-10-10-|
E|------------55555555-77777777-------------------------------|

Slows down...
G|-11-11-11-11-11-11-11-11--99999999-11-x8--77777777-|
D|---------------------------------------------------|
A|---------------------------------------------------|
E|---------------------------------------------------|


[Solo]

G|---------------------------|
D|---------------------------|
A|-5-------------------------|
E|--------5-------7--------3-|


[Chorus] X4
G|-----------------------------------|
D|-----------------------------------|
A|-55555555--77777777--12-x8---10----|x8
E|-----------------------------------| 
Suggest correction
comments
print report bad tab
67 comments total. Showing first comments.
0 reply
man57 0 Feb 07, 2002 12:00 AM

Excellent work

+1 reply
Blinker27 0 Feb 08, 2002 12:00 AM

thanks!!! it was pretty fun making this tab and i hope its fun playing it... to me it is anyway

0 reply
flip 60 Feb 10, 2002 12:00 AM

Great job, this sounds great, Thanks!

guest
You may want to rate the tab now too:
select rating
Wanna post a correction for this tab? Suggest correction