Oops, an error
Loading. Please wait.

Dammit Tab

version 1
3,245 views 9 this week
4 commentsread comments
1 2 3 4 5
x 3
add to favorites
launch autoscroll
font size
0
reset
how to read this tab
guitar tuner
×
Best way to learn
"Dammit"
Autoscroll
slow
fast
+/-
esc
set tempo
stop
Blink 182: Dammit ( Live )
Tuning (STANDARD)
Tabbed Live By Blink MAn (imhot_10@hotmail.com)
Any comments questions

Intro x4 ((DISTORTION))
e|-----------------------------------------------------------|
B|-----------------------------------------------------------|
G|-----------------------------------------------------------|
D|-------0-0-2------0-0-2-------0-0-2---------2-2-0----------|
A|--3-3--------------------0-0-------------------------------|
E|-------------3-3-------------------------1-1---------------|

Verse {1st part} x2
e|---------------------------------------------------------|
B|---------------------------------------------------------|
G|--5-55555------------------------------------------------|
D|--5-55555--5-55555--2-22222--3-33333---------------------|
A|--3-33333--5-55555--2-22222--1-11111---------------------|
E|-----------3-33333--0-00000--1-11111---------------------|
Palm Mute After First Hit on Each Cord


Verse {2nd part} x2 Different ryhthem
e|-----------------------------------------------------------|
B|-----------------------------------------------------------|
G|--5-55-55--------------------------------------------------|
D|--5-55-55---5-55-55---2-22-22---3-33-33--------------------|
A|--3-33-33---5-55-55---2-22-22---1-11-11--------------------|
E|------------3-33-33---0-00-00---1-11-11--------------------|

Chorus x2
e|-----------------------------------------------------------|
B|-----------------------------------------------------------|
G|--55555555-------------------------------------------------|
D|--55555555--55555555--22222222--33333333-------------------|
A|--33333333--55555555--22222222--33333333-------------------|
E|------------33333333--00000000--11111111-------------------|

Solo
e|--------------------------------------------------------|
B|--5-------3-5-------3-5---3-5-------3-5-----------------|
G|----5---5-----5---5-----5-----5---5---------------------|
D|------5---------5---------------5-----------------------|
A|--------------------------------------------------------|
E|--------------------------------------------------------|

ORDER
intro x4
verse {1st part} x2
verse {2nd part} x2
chorus x2
intro x2
verse {1st part} x2
verse {2nd part} x2
chorus x2
solo
intro till end
Guess It's just part of growing up
Very Easy Song And Sounds Awesome
Suggest correction
Give kudos to tab author, rate the tab!
1 2 3 4 5
comments
print report bad tab
4 comments total. Showing first comments.
0 reply
guitarplaya13 10 Nov 10, 2003 12:00 AM

The verse is wrong it goes e----------------------------------------
b----------------------------------------
g-5-5555555-----------2-2222222----------
...= palm mute d-5-5555555-5-5555555-2-2222222-3-3333333
a-3-3333333-5-5555555-0-0000000-3-3333333
e---.......-3-3333333---.......-1-1111111
....... .......

0 reply
stonesfan89 10 Feb 14, 2004 12:00 AM

what the heck does that mean

0 reply
Iceman86 55 Mar 27, 2004 12:00 AM

dude u realy need 2 tab these songs sober

guest
You may want to rate the tab now too:
select rating
Wanna post a correction for this tab? Suggest correction