Oops, an error
Loading. Please wait.

Dammit Tab

version 1
40,839 views 210 this week
44 commentsread comments
1 2 3 4 5
accurate
x 31
add to favorites
launch autoscroll
font size
0
reset
how to read this tab
guitar tuner
Tab Pro tools
  • play this tab
  • loop segment
  • change instrument
  • show fretboard
  • metronome
×
Best way to learn
"Dammit"
Autoscroll
slow
fast
+/-
esc
set tempo
stop
Blink 182, Damnit
James, Dave3641@aol.com
Alright, I just saw a blink tab on this site, and it is pretty much garbage.  There aren't too many good tabs out there, even though this site is probably the best.  There are a lot of people out there that are like, "I was too lazy to finish it, so play it like this", and i know you guys read that, and are like, "what the Fuck?"
So here is the good tab of Damnit.....
Any questions or comments feel free to email me any time at Davem3641@aol.com

E--------------------------------------------------
B--------------------------------------------------
G--------------------------------------------------
D------0-0-2-----0-0-2-----0-0-2-------2-2-0-------
A--3-3-----------------0-0-------------------------
e-------------3-3-----------------1-1--------------

               REPEAT THIS PRETTY MUCH THROUGHOUT THE WHOLE SONG AND HAVE YOUR DISTORTION TURNED PRETTY HIGH UP, CAUSE IT DOESN't SOUND AS GOOD WITHOU IT.

THEN THERE IS ONE PART THAT IS LIKE....
E---------------------------------------------------
B---------------------------------------------------
G---5-x-x-x-x---------------------------------------
D---5-x-x-x-x---5-x-x-x-x---7-x-x-x-x---3-x-x-x-x---
A---3-x-x-x-x---5-x-x-x-x---7-x-x-x-x---3-x-x-x-x---
E---------------3-x-x-x-x---5-x-x-x-x---1-x-x-x-x---

THEN AFTER THAT ALL YOU DO IS JUST PLAY THAT LINE WITHOUT THE MUTING, AND YOU JUST PLAY THE POWER CHORD.
NOT HARD AT ALL!!!
CHECK OUT ALL THE RAGE AGAINST THE MACHINE STUFF, AND IF YOU HAVE ANY NEW TABS FROM THE BATTLE OF LOS ANGLELES CD, SEND THEM TO ME CAUSE I TABBED THIS FOR YOU!!!

DAVE3641@AOL.COM

comments
print report bad tab
44 comments total. Showing first comments.
0 reply
DeRaNgEdGuiTaR wrote on December 30 2001, 12:00 am

GOOD JOB! THE ONLY DECENT TAB OF DAMMIT I'VE SEEN! But u seemed to have forgotten the solo and i'd be glad to add it for you:
-------------------
5-----3-5--5-----3-5
--5--5---5---5--5---
---5----------5-----
--------------------
--------------------
dont have enough room but you should be able to figure it out from what i gave you

0 reply
DuckMan AKD wrote on January 3 2002, 12:00 am

This really help me out, cheers

0 reply
DyNasty wrote on January 6 2002, 12:00 am

three cheers for zappp

I want to post or [tab]
guest
You may want to rate the tab now too:
select rating
Please do not post tabs as comments. Select "correction" instead!