Oops, an error
Loading. Please wait.

Dammit Tab

version 2
1,508,345 views 1,426 this week
166 commentsread comments
1 2 3 4 5
excellent!
x 680
add to favorites
launch autoscroll
font size
0
reset
how to read this tab
guitar tuner
Tab Pro tools
  • play this tab
  • loop segment
  • change instrument
  • show fretboard
  • metronome
×
Best way to learn
"Dammit"
Autoscroll
slow
fast
+/-
esc
set tempo
stop
Blink 182 - Dammit
Tabbed by Guzzo - CBEAST83@aol.com


[Intro]x4

play with alot of distortion (and possibly chorus).
e|-------------------------------------------------------|
B|-------------------------------------------------------|
G|-------------------------------------------------------|
D|-----0-0-2-------0-0-2-------0-0-2-------2-2-0---------|
A|-3-3---------------------0-0---------------------------|
E|-------------3-3---------------------1-1---------------|


[Verse 1] x2

"It's all right to tell me what you think about me"...

e|-------------------------------------------------------|
B|-------------------------------------------------------|
G|--5-5-5-5-5-5------------------------------------------|
D|--5-5-5-5-5-5--5-5-5-5-5-5--7-7-7-7-7-7--3-3-3-3-3-----|
A|--3-3-3-3-3-3--5-5-5-5-5-5--7-7-7-7-7-7--3-3-3-3-3-----|
E|---------------3-3-3-3-3-3--5-5-5-5-5-5--1-1-1-1-1-----|

*palm mute all strums but the first of each chord.


[Verse 2] x2

same thing as first verse but hit each chord 5 times w/o palmmute

e|-----------------|
B|-----------------|
G|--5--------------|
D|--5---5---7--3---|
A|--3---5---7--3---|
E|------3---5--1---|


[Instrumental] x4

play with alot of distortion (and possibly chorus).
e|-------------------------------------------------------|
B|-------------------------------------------------------|
G|-------------------------------------------------------|
D|-----0-0-2-------0-0-2-------0-0-2-------2-2-0---------|
A|-3-3---------------------0-0---------------------------|
E|-------------3-3---------------------1-1---------------|


[Verse 1] x2

"It's all right to tell me what you think about me"...

e|-------------------------------------------------------|
B|-------------------------------------------------------|
G|--5-5-5-5-5-5------------------------------------------|
D|--5-5-5-5-5-5--5-5-5-5-5-5--7-7-7-7-7-7--3-3-3-3-3-----|
A|--3-3-3-3-3-3--5-5-5-5-5-5--7-7-7-7-7-7--3-3-3-3-3-----|
E|---------------3-3-3-3-3-3--5-5-5-5-5-5--1-1-1-1-1-----|

*palm mute all strums but the first of each chord.


[Verse 2] x2

same thing as first verse but hit each chord 5 times w/o palmmute

e|-----------------|
B|-----------------|
G|--5--------------|
D|--5---5---7--3---|
A|--3---5---7--3---|
E|------3---5--1---|


[Chorus] x2

chorus-"And its happened once again..."
same chords but different rhythm

e|-----------------|
B|-----------------|
G|--5--------------|
D|--5---5---7--3---|
A|--3---5---7--3---|
E|------3---5--1---|


[Instrumental] x2

play with alot of distortion (and possibly chorus).
e|-------------------------------------------------------|
B|-------------------------------------------------------|
G|-------------------------------------------------------|
D|-----0-0-2-------0-0-2-------0-0-2-------2-2-0---------|
A|-3-3---------------------0-0---------------------------|
E|-------------3-3---------------------1-1---------------|


[Verse 1] x2

"It's all right to tell me what you think about me"...

e|-------------------------------------------------------|
B|-------------------------------------------------------|
G|--5-5-5-5-5-5------------------------------------------|
D|--5-5-5-5-5-5--5-5-5-5-5-5--7-7-7-7-7-7--3-3-3-3-3-----|
A|--3-3-3-3-3-3--5-5-5-5-5-5--7-7-7-7-7-7--3-3-3-3-3-----|
E|---------------3-3-3-3-3-3--5-5-5-5-5-5--1-1-1-1-1-----|

*palm mute all strums but the first of each chord.


[Verse 2] x2

same thing as first verse but hit each chord 5 times w/o palmmute

e|-----------------|
B|-----------------|
G|--5--------------|
D|--5---5---7--3---|
A|--3---5---7--3---|
E|------3---5--1---|


[Chorus] x2

chorus-"And its happened once again..."
same chords but different rhythm

e|-----------------|
B|-----------------|
G|--5--------------|
D|--5---5---7--3---|
A|--3---5---7--3---|
E|------3---5--1---|


[Bridge] x2

(Clean) 

e|------------------------------------------------------------|
B|------------------------------------------------------------|
G|------------------------------------------------------------|
D|--2------0--2------2---------0-2---0-2----2-----------------|
A|----3---------3------3-----------3-----3----3---------------|
E|------3----------------3----------------------3-------------|


[Outro] x2

play with alot of distortion (and possibly chorus).
e|-------------------------------------------------------|
B|-------------------------------------------------------|
G|-------------------------------------------------------|
D|-----0-0-2-------0-0-2-------0-0-2-------2-2-0---------|
A|-3-3---------------------0-0---------------------------|
E|-------------3-3---------------------1-1---------------|


[Order os the song]

intro           4x
verse           2x      (it's alright to tell me, what you think about me...")
verse2          2x      (i know that your leaving, you must have your reasons")
instrumental    2x
verse           2x      (the steps that i retraced, the sad look on your face)
verse2          2x      ( a day late a buck short, im writing the report...)
chorus          2x      (and its happened once again, i'll turn to a friend...)
instrumental    2x
verse           2x      (and maybe i'll see you, at a movie sneak preview...)
verse2          2x      (and you'll smile, and i'll wave...)
chorus          2x      (and its happened once again, i'll turn to a friend...)
bridge
instrumental    4x      end on C5
comments
print report bad tab
166 comments total. Showing first comments.
+4 reply
gunnar wrote on March 24 2002, 12:00 am

word

+9 reply
DerreckW wrote on March 28 2002, 12:00 am

this is the proper version so all you other fails stop tabbing it

+1 reply
demonwater103 wrote on April 6 2002, 12:00 am

it is the correct tab but it is a little bit confusing but i am still giving it 5 stars

I want to post or [tab]
guest
You may want to rate the tab now too:
select rating
Please do not post tabs as comments. Select "correction" instead!