Oops, an error
Loading. Please wait.

Dammit Tab

version 8
8,173 views 1 this week
10 commentsread comments
1 2 3 4 5
worth learning
x 11
add to favorites
launch autoscroll
font size
0
reset
how to read this tab
guitar tuner
Tab Pro tools
  • play this tab
  • loop segment
  • change instrument
  • show fretboard
  • metronome
×
Best way to learn
"Dammit"
Autoscroll
slow
fast
+/-
esc
set tempo
stop
     Aritst: Blink 182
     Title: Dammit Main Riff
     Author: Joey Roper >guitar_rocker_jr@hotmail.com<

   *This is the EXACT way Tom plays the main riff to dammit. The other ways are just shortcuts.


     |---------------------------------------------------------------|
     |---------------------------------------------------------------|
     |---------------------------------------------------------------|
     |-------0-0-2-------0-0-2-------0-0-2-------2-2-0---------------|
     |--3-3---------------------0-0----------------------------------|
     |--------------3-3---------------------1-1----------------------|


   *Just play this over and over and then you will have an authentic sounding riff of dammit.
comments
print report bad tab
10 comments total. Showing first comments.
0 reply
lilmonkeyman134 wrote on May 7 2004, 12:00 am

im tryin to figure out why this tab has only three stars because this riff is correct.

0 reply
Shrek56 wrote on July 31 2004, 12:00 am

and me, this tab is exactly how tom plays it, and its perfect, what is wrong with these people?

0 reply
joewright wrote on September 30 2005, 09:42 am

i rated this tab as bad, simply becasue they are the wrong notes. It sounds dreadful with the open strings. If you watch the videos it is clear how tom plays it.

e-----------------------------------------------------------
b-----------------------------------------------------------
g-----------------------------------------------------------
d---------------------------------0-0-2------2-2--0---------
a---3-3--5-5--2-------5-5--2--0-0---------------------------
e-----------------3-3--------------------1-1----------------

I want to post or [tab]
guest
You may want to rate the tab now too:
select rating
Please do not post tabs as comments. Select "correction" instead!