Oops, an error
Loading. Please wait.

Disaster Bass Tab

version 1
version 1

Whole song

Interactive

7,499 views 3 this week
1 commentread comment
1 2 3 4 5
excellent!
x 13
add to favorites
launch autoscroll
font size
0
reset
guitar tuner
Tab Pro tools
  • play this tab
  • loop segment
  • change instrument
  • show fretboard
  • metronome
×
Best way to learn
"Disaster"
Autoscroll
slow
fast
+/-
esc
set tempo
stop
Contributor
Difficulty
novice
-------------------------------------------------------------------------------
Disaster - Blink 182
-------------------------------------------------------------------------------
Tabbed by: Brian Wells
Tuning: Standard

Really repetitive song so I tried to make the tab as short as possible so its easy 
to read while playing

 Intro
 0:00 - 0:59
G|-------------------------------|
D|-------------------------------|
A|3-3-3-3-3-3-3-3-3-3-3-3-3-3-3-3|X24
E|-------------------------------|

 Verse
G|-------------------------------|  |-------------------------------|
D|-------------------------------|  |-------------------------------|
A|3-3-3-3-3-3-3-3-3-3-3-3-3-3-3-3|X2|-------------------------------|X2
E|-------------------------------|  |1-1-1-1-1-1-1-1-1-1-1-1-1-1-1-1|

G|-------------------------------|  |-------------------------------|
D|-------------------------------|  |-------------------------------|
A|3-3-3-3-3-3-3-3-3-3-3-3-3-3-3-3|X2|-------------------------------|X2
E|-------------------------------|  |1-1-1-1-1-1-1-1-1-1-1-1-1-1-1-1|

G|-------------------------------|
D|-------------------------------|
A|-------------------------------|X2
E|3-3-3-3-3-3-3-3-3-3-3-3-3-3-3-3|

 Chorus
G|-------------------------------|
D|-------------------------------|
A|3-3-3-3-3-3-3-3-3-3-3-3-3-3-3-3|X2
E|-------------------------------|

G|----------------------------------------------------------------|
D|----------------------------------------------------------------|
A|10-10-10-10-10-10-10-10-10-10-10-10-10-10-10-10--8--7----8--7---|
E|-------------------------------------------------------8-------8|

Verse
G|-------------------------------|  |-------------------------------|
D|-------------------------------|  |-------------------------------|
A|3-3-3-3-3-3-3-3-3-3-3-3-3-3-3-3|X2|-------------------------------|X2
E|-------------------------------|  |1-1-1-1-1-1-1-1-1-1-1-1-1-1-1-1|

G|-------------------------------|  |-------------------------------|
D|-------------------------------|  |-------------------------------|
A|3-3-3-3-3-3-3-3-3-3-3-3-3-3-3-3|X2|-------------------------------|X2
E|-------------------------------|  |1-1-1-1-1-1-1-1-1-1-1-1-1-1-1-1|

G|-------------------------------|  |-------------------------------|
D|-------------------------------|  |-------------------------------|
A|3-3-3-3-3-3-3-3-3-3-3-3-3-3-3-3|X2|-------------------------------|X2
E|-------------------------------|  |1-1-1-1-1-1-1-1-1-1-1-1-1-1-1-1|

G|-------------------------------|
D|-------------------------------|
A|-------------------------------|X2
E|3-3-3-3-3-3-3-3-3-3-3-3-3-3-3-3|

Chorus
G|-------------------------------|
D|-------------------------------|
A|3-3-3-3-3-3-3-3-3-3-3-3-3-3-3-3|X2
E|-------------------------------|

G|-----------------------------------------------|
D|-----------------------------------------------|
A|10-10-10-10-10-10-10-10-10-10-10-10-10-10-10-10|X2
E|-----------------------------------------------|

G|-------------------------------|  |-------------------------------|
D|-------------------------------|  |-------------------------------|
A|8-8-8-8-8-8-8-8-8-8-8-8-8-8-8-8|X2|3-3-3-3-3-3-3-3-3-3-3-3-3-3-3-3|X2
E|-------------------------------|  |-------------------------------|

G|-------------------------------|
D|-------------------------------|
A|-------------------------------|X2
E|5-5-5-5-5-5-5-5-5-5-5-5-5-5-5-5|

G|-------------------------------------------------|
D|-------------------------------------------------|
A|3-3-3-3-3-3-3-3-3-3-3-3-3-3-3-3--8--7-----8--7---|
E|---------------------------------------8--------8|

Bridge:
No Bass 2:38 - 2:57

Chorus/ Outro
G|-------------------------------|
D|-------------------------------|
A|3-3-3-3-3-3-3-3-3-3-3-3-3-3-3-3|X2
E|-------------------------------|

G|-----------------------------------------------|
D|-----------------------------------------------|
A|10-10-10-10-10-10-10-10-10-10-10-10-10-10-10-10|X2
E|-----------------------------------------------|

G|-------------------------------|  |-------------------------------|
D|-------------------------------|  |-------------------------------|
A|8-8-8-8-8-8-8-8-8-8-8-8-8-8-8-8|X2|3-3-3-3-3-3-3-3-3-3-3-3-3-3-3-3|X2
E|-------------------------------|  |-------------------------------|

G|-------------------------------|
D|-------------------------------|
A|-------------------------------|X2
E|5-5-5-5-5-5-5-5-5-5-5-5-5-5-5-5|

G|---------------------------------------------------|
D|---------------------------------------------------|
A|3-3-3-3-3-3-3-3-3-3-3-3-3-3-3-3--8--7-----8--7-----|
E|---------------------------------------8--------8-8|

| /  slide up
| \  slide down
| h  hammer-on
| p  pull-off
| ~  vibrato
| +  harmonic
| x  Mute note
===============================================================================
comments
print report bad tab
1 comment total.
+1 reply
AtikusEvko wrote on March 18 2013, 01:28 pm

I think the last line of threes before the single note plucks in the chorus should be on the E string instead on the A, like so.

G|-------------------------------------------------|
D|-------------------------------------------------|
A|---------------------------------8--7-----8--7---|
E|3-3-3-3-3-3-3-3-3-3-3-3-3-3-3-3--------8--------8|

I want to post or [tab]
guest
You may want to rate the tab now too:
select rating
Please do not post tabs as comments. Select "correction" instead!