Oops, an error
Loading. Please wait.

Does My Breath Smell Tab

version 1
version 1

Whole song

Interactive

8,011 views 6 this week
1 commentread comment
1 2 3 4 5
excellent!
x 9
add to favorites
launch autoscroll
font size
0
reset
how to read this tab
guitar tuner
Tab Pro tools
  • play this tab
  • loop segment
  • change instrument
  • show fretboard
  • metronome
×
Best way to learn
"Does My Breath Smell"
Autoscroll
slow
fast
+/-
esc
set tempo
stop
Contributor
Artist: Blink 182
Song: Does My Breath Smell?
Album:cheshire cat
     key:  palm mute=.
           slide up= /
           slide down= \
           let ring=~
intro
e|------------------------------------------------------------------------|
B|------------------------------------------------------------------------|
G|-55555555-55555555----------55555555-55555555-55555555------------------| 
D|-55555555-55555555-33333333-55555555-55555555-55555555-33333333-55555555|x1
A|-33333333-22222222-33333333-22222222-33333333-22222222-33333333-55555555|    
E|-------------------11111111----------------------------11111111-33333333|
   ........ ........ ........ ........ ........ ........ ........ ........

intro cont.
e|----------------------------------------------------------------------|
B|----------------------------------------------------------------------|
G|-55555555-55555555----------55555555-55555555-55555555----------5~~~~~| 
D|-55555555-55555555-33333333-55555555-55555555-55555555-33333333-5~~~~~|x1
A|-33333333-22222222-33333333-22222222-33333333-22222222-33333333-3~~~~~|
E|-------------------11111111----------------------------11111111-------|
   ........ ........ ........ ........ ........ ........ ........ 

intro 2
e |----------------------------------------|
B |----------------------------------------|
G |-5555-9/10\99\7------10\9\7-------------|
D |-5555-9/10\99\7-3333-10\9\7-------------|  x4
A |-3333-7/8-\77\5-3333-8-\7\5-------------|
E |----------------1111--------------------|

verse
e |-------------------------------------------|
B |-------------------------------------------|
G |-5555-5555------5555--5555-5555------------|
D |-5555-5555-3333-5555-5555-5555-3333-5555--|   x2
A |-3333-2222-3333-2222--3333-2222-3333-5555--|
E |-----------1111-----------------1111-3333--|

chorus
e |-------------------------------------------------------|
B |-------------------------------------------------------|
G |-------------------55555555-22222222-------------------|
D |-33333333-55555555-55555555-22222222-33333333-55555555-|   x1
A |-33333333-55555555-33333333-00000000-33333333-55555555-|
E |-11111111-33333333-------------------11111111-33333333-|


intro 2
e |----------------------------------------|
B |----------------------------------------|
G |-5555-9/10\99\7------10\9\7-------------|
D |-5555-9/10\99\7-3333-10\9\7-------------|  x4
A |-3333-7/8-\77\5-3333-8-\7\5-------------|
E |----------------1111--------------------|


verse
e |-------------------------------------------|
B |-------------------------------------------|
G |-5xxx-5xxx------5xxx--5xxx-5xxx------------|
D |-5xxx-5xxx-3xxx-5xxx--5xxx-5xxx-3xxx-5xxx--|   x2
A |-3xxx-2xxx-3xxx-2xxx--3xxx-2xxx-3xxx-5xxx--|
E |-----------1xxx-----------------1xxx-3xxx--|


chorus
e |-------------------------------------------------------|
B |-------------------------------------------------------|
G |-------------------55555555-22222222-------------------|
D |-33333333-55555555-55555555-22222222-33333333-55555555-|   x1
A |-33333333-55555555-33333333-00000000-33333333-55555555-|
E |-11111111-33333333-------------------11111111-33333333-|

interlude
e |-------------------------------------------------------|
B |-------------------------------------------------------|
G |-555--------------5/7\55555/7\55555/7\5555-10\9\7\5----|
D |-555-333-555-333--5/7\55555/7\55555/7\5555-10\9\7\5----|   x1
A |-333-333-555-333--3/5\33333/5\33333/5\3333--8\7\5\3----|
E |-----111-333-111---------------------------------------|

interlude cont.
e |-------------------------------------------------------| 
B |-------------------------------------------------------|
G |-55555555----------------------------------------------|
D |-55555555-33333333-55555555-33333333-------------------|   x4
A |-33333333-33333333-55555555-33333333-------------------|
E |----------11111111-33333333-11111111-------------------|

outro
e |----------------------------------------|
B |----------------------------------------|
G |-5555-9/10\99\7------10\9\7-------------|
D |-5555-9/10\99\7-3333-10\9\7-------------|  x3
A |-3333-7/8-\77\5-3333-8-\7\5-------------|
E |----------------1111--------------------|

outro cont.
e |----------------------------------------|
B |----------------------------------------|
G |-5555-9/10\99\7------10\9\7-55555555----|
D |-5555-9/10\99\7-3333-10\9\7-55555555----|  x1
A |-3333-7/8-\77\5-3333-8-\7\5-33333333----|
E |----------------1111--------------------|

have any questions, email me at xcristy182x@yahoo.com Have fun:D
comments
print report bad tab
1 comment total.
0 reply
mik31995 wrote on January 5 2010, 10:41 am

Nice tab! And nice username haahha:D

I want to post or [tab]
guest
You may want to rate the tab now too:
select rating
Please do not post tabs as comments. Select "correction" instead!