Oops, an error
Loading. Please wait.

Dogs Eating Dogs Tab

version 4
version 4

Interactive

217 views 3 this week
no commentswrite comment
1 2 3 4 5
please rate
add to favorites
launch autoscroll
font size
0
reset
how to read this tab
guitar tuner
Tab Pro tools
  • play this tab
  • loop segment
  • change instrument
  • show fretboard
  • metronome
Autoscroll
slow
fast
+/-
esc
set tempo
stop
Difficulty
novice
Blink 182 - Dogs eating dogs tab.
standard tuning.
by 41monique182

So I've seen a couple of tabs for this song and they were missing the bridge or it
sounded wrong. I learnt this by ear and this is my first tab :) rate please!

palm mute *
let ring ~


Intro
e|------------------------------------------------------------------|
b|------------------------------------------------------------------|
g|--5-4-5-7-5-4-55555555----------5-4-5-7-5-4-55555555--------------|
d|--2-2-2-7-2-2-55555555-55555555-2-2-2-7-2-2-55555555-22222222-----|   x2
a|--0-0-0-0-0-0-33333333-55555555-0-0-0-0-0-0-33333333-22222222-----|
E|-----------------------33333333----------------------00000000-----|


Verse 1
|-----------------------|
|-----------------------|
|-----55555555----------|
|--7~-55555555-55555555-|
|--7~-33333333-55555555-|
|--5~----------33333333-|
"I've gotta feeling, I gotta feeling....."
|-------------------------------------|
|-------------------------------------|
|-------------------55555555----------|
|--7777777777777777-55555555-55555555-| x3
|--7777777777777777-33333333-55555555-|
|--5555555555555555----------33333333-|
"we will always starve and devour..."


Pre-Chorus
|-------------------------------------|
|-------------------------------------|
|-------------------55555555----------|
|--3333333333333333-55555555-55555555-| x2
|--3333333333333333-33333333-55555555-|
|--1111111111111111----------33333333-|
   **************** ******** ********
"dogs eating dogs, dogs eating dogs..."


Chorus
|-------------------------------------------|
|-------------------------------------------|
|--5~---------------------------------------|
|--5~-3~-77777777-55555555-3333333333333333-| x2
|--3~-3~-77777777-55555555-3333333333333333-|
|-----1~-55555555-33333333-1111111111111111-|
"im the last...."    "to the bones..."

 REPEAT INTRO
e|---------------------------------------------------------------|
b|---------------------------------------------------------------|
g|--5-4-5-7-5-4-55555555----------5-4-5-7-5-4-55555555-----------|
d|--2-2-2-7-2-2-55555555-55555555-2-2-2-7-2-2-55555555-22222222--|
a|--0-0-0-0-0-0-33333333-55555555-0-0-0-0-0-0-33333333-22222222--|
E|-----------------------33333333----------------------00000000--|

Verse 2
|-------------------------------------|
|-------------------------------------|
|-------------------55555555----------|
|--7777777777777777-55555555-55555555-| x2
|--7777777777777777-33333333-55555555-|
|--5555555555555555----------33333333-|
"are only hope is burning down the chapel.....sex or suicide"

Pre-Chorus
|-------------------------------------|
|-------------------------------------|
|-------------------55555555----------|
|--3333333333333333-55555555-55555555-| x2
|--3333333333333333-33333333-55555555-|
|--1111111111111111----------33333333-|
   **************** ******** ********
"dogs eating dogs, dogs eating dogs..."

Chorus
|-------------------------------------------|
|-------------------------------------------|
|--5~---------------------------------------|
|--5~-3~-77777777-55555555-3333333333333333-| x2
|--3~-3~-77777777-55555555-3333333333333333-|
|-----1~-55555555-33333333-1111111111111111-|
"im the last....to the bones, to the knees"

BRIDGE

e|----------------------------|
b|----------------------------|
g|--10--9--10~~~-10-9-7-5-4-5-|   X2
d|----------------------------|
a|----------------------------|
E|----------------------------|

e|--------------|
b|--------------|
g|--10-9-7-5-4-5|      x3
d|--------------|
a|--------------|
E|--------------|

Back to pre chorus
|-------------------------------------|
|-------------------------------------|
|-------------------55555555----------|
|--3333333333333333-55555555-55555555-| x2
|--3333333333333333-33333333-55555555-|
|--1111111111111111----------33333333-|
   **************** ******** ********
"dogs eating dogs, dogs eating dogs..."

Chorus
|-------------------------------------------|
|-------------------------------------------|
|--5~---------------------------------------|
|--5~-3~-77777777-55555555-3333333333333333-| x2
|--3~-3~-77777777-55555555-3333333333333333-|
|-----1~-55555555-33333333-1111111111111111-|

intro

e|--------------------------------------------------------------|
b|--------------------------------------------------------------|
g|--5-4-5-7-5-4-55555555----------5-4-5-7-5-4-55555555----------|
d|--2-2-2-7-2-2-55555555-55555555-2-2-2-7-2-2-55555555--2-------|~   play once
a|--0-0-0-0-0-0-33333333-55555555-0-0-0-0-0-0-33333333--2~~-----|
E|-----------------------33333333-----------------------0~~-----|

Thats it. *Im still trying to figure out guitar 2 in the brigde*
hope this helps :)
comments
We did not receive enough feedback on this tab! Please rate:
print report bad tab
1 2 3 4 5
I want to post or [tab]
guest
You may want to rate the tab now too:
select rating
Please do not post tabs as comments. Select "correction" instead!