Oops, an error
Loading. Please wait.
We have an official Dont Leave Me tab made by UG professional guitarists. Check out the tab »
×
17,795 views 3 this week
2 commentsread comments
1 2 3 4 5
x 12
add to favorites
×
Save as Personal and add changes to this tab that will be seen only by you. Learn more ›
×
You can save this tab as Personal to edit and correct it or add notes. All changes will be seen only by you. Learn more »
launch autoscroll
font size
0
reset
guitar tuner
edit
Autoscroll
slow
fast
+/-
esc
set tempo
stop
Author
Difficulty
Song: Don't leave me
Artist: Blink 182
Bassist: Mark Hoppus


Intro 

g-----------------------------------------|
d-----------------------------------------|(x2)
a----------xxxx5555-xxxx2222-5555-7777----|
e--xxxx5555-------------------------------|

Verse

g--------------------------------------|
d--------------------------------------|(x1)
a---------55555555-22222222-55555555---|
e-55555555-----------------------------|

g--------------------------------------|
d--------------------------------------|(x1)
a---------55555555-22222222-5555-7777--|
e-55555555-----------------------------|

CHORUS

g----------------------|
d----------------------|(x3)
a-----2222-5555-7777---|
e-5555-----------------|

g----------------------|
d----------------------|
a-----2222-55555555----|
e-5555-----------------|

Pre Verse

g-----------------------------------------|
d-----------------------------------------|(x2)
a----------xxxx5555-xxxx2222-5555-7777----|
e--xxxx5555-------------------------------|

Verse

g--------------------------------------|
d--------------------------------------|(x1)
a---------55555555-22222222-55555555---|
e-55555555-----------------------------|

g--------------------------------------|
d--------------------------------------|(x1)
a---------55555555-22222222-5555-7777--|
e-55555555-----------------------------|

CHORUS

g----------------------|
d----------------------|(x3)
a-----2222-5555-7777---|
e-5555-----------------|

g----------------------|
d----------------------|
a-----2222-55555555----|
e-5555-----------------|

Bridge

g---------------------|
d-7777----------------|(x8)
a-----7777-55555555---|
e---------------------|

CHORUS

g----------------------|
d----------------------|(x3)
a-----2222-5555-7777---|
e-5555-----------------|

g----------------------|
d----------------------|
a-----2222-55555555----|
e-5555-----------------|

ENDING

g--------------------------------------|
d--------------------------------------|(x1)
a---------55555555-22222222-5555-7-----|
e-55555555-------------------------5---|

            
            
Suggest correction
Creating personal tab
Creating personal tab
You can edit any tab online and save it as your Personal.

You can edit, replace or remove any tab part or add personal notes – all changes will be seen only by you.

Personal tabs can be accessed anytime from any device, even offline.
Learn more »
comments
print report bad tab
2 comments total.
0 reply
wiredguitarist1 51 Aug 26, 2009 04:57 PM

Why not just go

A|-----5-7-|
E|-5-7-----|

etc. If you're going to play with the 5th frets, stay in that position. Or stay in the first position and do
D|-----0-2-|
A|-0-2-----|
E|---------|
etc.

-1 reply
emerica10570 1,878 Apr 13, 2012 04:11 PM

The bridge is chord based. Something like:
G|--9--9--7--|
D|--7--9--7--|
A|--0--7--5--|
E|-----------|

guest
You may want to rate the tab now too:
select rating
Wanna post a correction for this tab? Suggest correction