Oops, an error
Loading. Please wait.

Dont tab

version 3
version 3

Whole song

Interactive

100 views 1 this week
no commentswrite comment
1 2 3 4 5
1 last vote to show rating
add to favorites
×
Save as Personal and add changes to this tab that will be seen only by you. Learn more ›
×
You can save this tab as Personal to edit and correct it or add notes. All changes will be seen only by you. Learn more »
launch autoscroll
font size
0
reset
how to read this tab
guitar tuner
edit
Autoscroll
slow
fast
+/-
esc
set tempo
stop
 ----------------------------------------------------------------------------- 
                              Blink-182 - Don't
 -----------------------------------------------------------------------------

Artist - Blink-182
Album - Buddha 
Tabbed by: Strobber

The other two versions I found were quite horrible to look at let alone play to,
so hopefully my tab will help you out as I'm pretty sure I got it 100% right.

# = Harmonic
* = Palm mute
p = pull off
/ = slide

Intro harmonics:

Just 3 harmonics as the drums kick in

e|--------------------|
B|--------------------|
G|--------------------|
D|--------------------|
A|---7--7--7----------|
E|--------------------|
     #  #  #

Verse:

e|----------------------|------------------|
B|----------------------|------------------|
G|-12---12-12---12-11---|-7---7-7---7-12---|
D|----------------------|------------------|
A|-10---10-10---10-9----|-5---5-5---5-10---|
E|----------------------|------------------|

Solo 1:

Basically, you're holding your fingers in a D major position. Mute the D string
the entire time! Hold the middle finger on the D string the entire time.

All down picking!

e|--------------------------------------------------|
B|--------------------------------------------------|
G|--------12-------12-------12-------12p11----------|    x4
D|--12-12----12-12----12-12----12-12----------------|
A|--------------------------------------------------|
E|--------------------------------------------------|
    *  *     *  *     *  *     *  * 

Verse alternation:

Comes in the second time you play the intro, after playing it regularly 
the first time.

e|----------------------|-------------------|
B|----------------------|-------------------|
G|-12---12-12---12-11---|-7---7-------------|
D|----------------------|-------7-/-9-/-7---|
A|-10---10-10---10-9----|-5---5-------------|
E|----------------------|-------5-/-7-/-5---|

End the "intro" with:

e|--------|
B|--------|
G|--------|
D|---5----|
A|---5----|
E|---3----|

Chorus:

Fairly simple, just a couple of chords, figure out the
strumming on your own, It's really simple.

e|---------------------------------------------------|
B|---------------------------------------------------|
G|---------------------------7-7-7-7-7-7-7-7---------|
D|-----7-7-7-7-7--4-4-4-4-4--7-7-7-7-7-7-7-7---------|
A|-----7-7-7-7-7--4-4-4-4-4--5-5-5-5-5-5-5-5---------|
E|-----5-5-5-5-5--2-2-2-2-2--------------------------|

Solo 2:

Just like before, hold your hand in an A major esque position, with the middle
finger holding the D string the entire time.
No palm muting this time.

e|---------------------------------------------------|
B|---------------------------------------------------|
G|-----6---6---6---6----6-----7---7---7---7----7-----|    x2
D|---7--(7)-(7)-(7)--7------7--(7)-(7)-(7)--7--------|
A|---------------------------------------------------|
E|---------------------------------------------------|

You don't have to play the notes in parentheses, I just think it sounds better
that way.

Ending chord:

e|---------|
B|---------|
G|---------|
D|----5----|
A|----5----|
E|----3----|

************************************

Here's the order:

Intro harmonics       X1
Verse                 X4
Solo 1                X1
Verse                 X1
Verse alternation     X3
"Intro" ending        X1
Intro harmonics       X1
Chorus                X4
Solo 2                X1
Verse                 X4
Solo 1                X4
Verse                 X1
Verse alternation     X3
"Intro" ending        X1
Intro harmonics       X1  (This is debatable, but this is the simple way to do it)
Chorus                X4
Solo 2                X1
Solo 1                X1
Ending chord          X1
Suggest correction
Creating personal tab
Creating personal tab
You can edit any tab online and save it as your Personal.

You can edit, replace or remove any tab part or add personal notes – all changes will be seen only by you.

Personal tabs can be accessed anytime from any device, even offline.
Learn more »
Give kudos to tab author, rate the tab!
1 2 3 4 5
comments
print report bad tab
guest
You may want to rate the tab now too:
select rating
Wanna post a correction for this tab? Suggest correction