Oops, an error
Loading. Please wait.

Down Tab

version 2
version 2

Video

  • High quality, easy to follow video lesson.
21,590 views 15 this week
8 commentsread comments
1 2 3 4 5
x 19
add to favorites
launch autoscroll
font size
0
reset
how to read this tab
guitar tuner
×
Best way to learn
"Down"
Autoscroll
slow
fast
+/-
esc
set tempo
stop
Author
Capo
2nd fret
Artist: Blink 182
Song Title: Down
Album: Blink 182
Tuning: Standard, Capo 2nd fret, All notes relative to the capo

Intro
e---------------------------------
B---------------------------------
G---------x-x--------x-x-----x-x--
D--7--7-7-x-x-7--7-7-x-x-7-7-x-x--
A--0--0-0-x-x-0--0-0-x-x-0-0-x-x--
E--5--5-5-x-x-5--5-5-x-x-5-5-x-x--

Verse
e------------------------------------------------
B------------------------------------------------
G------------------------------------------------
D--7-7-7-7--7-7-7-7--7-7--4-4-4-4--6-6-6-6--6-6--
A--0-0-0-0--0-0-0-0--0-0--0-0-0-0--0-0-0-0--0-0--
E--5-5-5-5--5-5-5-5--5-5--2-2-2-2--4-4-4-4--4-4--

Chorus
e----------------------------------------------------------------
B----------------------------------------------------------------
G----------------------------------------------------------------
D--4--4-4-4-4-4--4-4-4-4-4-4-4-4--6--6-6-6-6-6--6-6-6-6-6-6-6-6--
A--4--4-4-4-4-4--4-4-4-4-4-4-4-4--6--6-6-6-6-6--6-6-6-6-6-6-6-6--
E--2--2-2-2-2-2--2-2-2-2-2-2-2-2--4--4-4-4-4-4--4-4-4-4-4-4-4-4--

e----------------------------------------------------------------
B----------------------------------------------------------------
G----------------------------------------------------------------
D--7--7-7-7-7-7--7-7-7-7-7-7-7-7--2--2-2-2-2-2--2-2-2-2-2-2-2-2--
A--7--7-7-7-7-7--7-7-7-7-7-7-7-7--2--2-2-2-2-2--2-2-2-2-2-2-2-2--
E--5--5-5-5-5-5--5-5-5-5-5-5-5-5--0--0-0-0-0-0--0-0-0-0-0-0-0-0--

e----------------------------------------------------------------
B----------------------------------------------------------------
G----------------------------------------------------------------
D--4--4-4-4-4-4--4-4-4-4-4-4-4-4--6--6-6-6-6-6--6-6-6-6-6-6-6-6--
A--4--4-4-4-4-4--4-4-4-4-4-4-4-4--6--6-6-6-6-6--6-6-6-6-6-6-6-6--
E--2--2-2-2-2-2--2-2-2-2-2-2-2-2--4--4-4-4-4-4--4-4-4-4-4-4-4-4--
Suggest correction
comments
print report bad tab
8 comments total. Showing first comments.
0 reply
laguname2 10 Jun 18, 2004 08:00 PM

this tab is perfect! finally someone with a brain. this is exactly what tom is doing

+1 reply
BassPlayer18269 236 Jul 11, 2004 08:00 PM

sorry, i forgot the riff after the ccorus, it goes like this-
capo second fret, all notes relative to the capo
e--------------------------------------------------------------------
B--------------------------------------------------------------------
G--------------------------------------------------------------------
D--7-7-7-7-7-7-7-7-7-7-7-7-7-7-7-7-12-12-12-12-12-12-12-12-12-12-12--
A--0-0-0-0-0-0-0-0-0-0-0-0-0-0-0-0-0--0--0--0--0--0--0--0--0--0--0---
E--5-5-5-5-5-5-5-5-5-5-5-5-5-5-5-5-10-10-10-10-10-10-10-10-10-10-10--

e--------------------------------------------------------------------
B--------------------------------------------------------------------
G--------------------------------------------------------------------
D--12-12-12-12-12-11-11-11-11-11-11-11-11-11-11-11-11-11-11-11-11-12-
A--0--0--0--0--0--0--0--0--0--0--0--0--0--0--0--0--0--0--0--0--0--0--
E--10-10-10-10-10-9--9--9--9--9--9--9--9--9--9--9--9--9--9--9--9--10-

e------------------------------------------------
B------------------------------------------------
G------------------------------------------------
D--12-12-12-12-12-12-12-12-12-12-12-12-12-12-12--
A--0--0--0--0--0--0--0--0--0--0--0--0--0--0--0---
E--10-10-10-10-10-10-10-10-10-10-10-10-10-10-10--

0 reply
SundaySt 61 Nov 01, 2007 08:31 PM

it is suppose to be lyk this. watch tom..http://youtube.com/watch?v=-UVFmhE75wI

guest
You may want to rate the tab now too:
select rating
Wanna post a correction for this tab? Suggest correction