Oops, an error
Loading. Please wait.
We have an official Down tab made by UG professional guitarists. Check out the tab »
×

Down bass

version 6
version 6

Whole song

3,602 views 3 this week
2 commentsread comments
1 2 3 4 5
x 5
add to favorites
×
Save as Personal and add changes to this tab that will be seen only by you. Learn more ›
×
You can save this tab as Personal to edit and correct it or add notes. All changes will be seen only by you. Learn more »
launch autoscroll
font size
0
reset
guitar tuner
edit
Autoscroll
slow
fast
+/-
esc
set tempo
stop
Author
Difficulty
Tabbed by: Ruby 
Tuning: Standard (EADG)

0:10 (Intro)
G|--------------------------------------------|
D|--------------------------------------------| x2
A|-2222-222--------1111-----------------------|
E|-----------2/444----------------------------|

Verse 0:20 (When Tom starts singing)
G|--------------------------------------------|
D|-1------------------------------------------| x4
A|---2-2222-2/4------1111-11------------------|
E|--------------4444--------------------------|

0:42 
G|--------------------------------------------|
D|--------------------------------------------|
A|--------------------------------------------|
E|-0~-----------------------------------------|

0:43 (Chorus)
G|------------------------------------------------------------------|
D|------------------------------------------------------------------|
A|--------------1111-1111-11/2222-2222-22---------------------------|
E|-4444-4444-44---------------------------2222-2222-22-4444-4444-44-|
(continued)
G|--------------------------------------------|
D|--------------------------------------------|
A|-1111-1111-11-------------------------------|
E|--------------------------------------------|

0:58 (Mark's singing) 
G|-----------------------------------------------------|
D|-----------------------------------------------------| x2
A|-2222-2222-22----------------------------------------|
E|--------------0000-0000-00-4444-4444-44-0000-0000-00-|

Verse 1:34
G|--------------------------------------------|
D|-1------------------------------------------| x2
A|---2-2222-2/4------1111-11------------------|
E|--------------4444--------------------------|

1:44
G|--------------------------------------------|
D|--------------------------------------------|
A|--------------------------------------------|
E|-0~-----------------------------------------|

1:47 (Chorus)
G|------------------------------------------------------------------|
D|------------------------------------------------------------------|
A|--------------1111-1111-11/2222-2222-22---------------------------|
E|-4444-4444-44---------------------------2222-2222-22-4444-4444-44-|
(continued)
G|--------------------------------------------|
D|--------------------------------------------|
A|-1111-1111-11-------------------------------|
E|--------------------------------------------|

2:02 (Down, down, down, down...)
G|-----------------------------------------------------|
D|-----------------------------------------------------| x2
A|-2222-2222-22----------------------------------------|
E|--------------0000-0000-00-4444-4444-44-0000-0000-00-|


2:23 (Outro)
G|--------------------------------------------|
D|--------------------------------------------|
A|-2~--------2~-----------2~-----------2~-----|
E|--------------------------------------------|

3:03
G|--------------------------------------------|
D|--------------------------------------------|
A|--------------------------------------------|
E|-0~-----------------------------------------|

This is my first tab. If anything is wrong, just contact me and I'll review and fix it. Thanks :)
Suggest correction
Creating personal tab
Creating personal tab
You can edit any tab online and save it as your Personal.

You can edit, replace or remove any tab part or add personal notes – all changes will be seen only by you.

Personal tabs can be accessed anytime from any device, even offline.
Learn more »
comments
print report bad tab
2 comments total.
0 reply
zjcl1 114 Jun 04, 2012 07:29 PM

dude this looks awesome.

0 reply
ilich12345 12 Sep 28, 2016 06:41 PM

The only one that is correct

guest
You may want to rate the tab now too:
select rating
Wanna post a correction for this tab? Suggest correction