Oops, an error
Loading. Please wait.
We have an official Down tab made by UG professional guitarists. Check out the tab »
×

Down Live bass

version 7
version 7

Whole song

43 views 3 this week
1 commentread comment
1 2 3 4 5
2 more votes to show rating
add to favorites
×
Save as Personal and add changes to this tab that will be seen only by you. Learn more ›
×
You can save this tab as Personal to edit and correct it or add notes. All changes will be seen only by you. Learn more »
launch autoscroll
font size
0
reset
guitar tuner
edit
Autoscroll
slow
fast
+/-
esc
set tempo
stop
About this tab version
Full bass tab of Reading 2014 Concert version, including outro jam part. Was this info helpful? Yes No
[Intro]

0:05 
G|---------------------|-----------------------|
D|---------------------|-----------------------|
A|-2-------------------|-2-2-------------------|
E|-2-------------------|-2-2-------------------|
   hold

G|---------------------------|---------------------------|
D|---------------------------|---------------------------| x2
A|-2-2-2-2---2-2-2-2---2-2---|-----------1-1-1-1---1-1---|
E|---------------------------|-4-4-4-4-------------------|



[Verse 1]
G|-------------------------|---------------------------|
D|-1-----------------------|---------------------------| x4
A|-----2---2-2----2-2/4----|-----------1-1-1-1---1-1---|
E|-------------------------|-4-4-4-4-------------------|



[Prechorus]
G|--------------------------------------------|
D|--------------------------------------------|
A|--------------------------------------------|
E|-0~-----------------------------------------|



[Chorus]
G|---------------------------|---------------------------|---------------------------|
D|---------------------------|---------------------------|---------------------------|
A|---------------------------|-1-1-1-1---1-1-1-1---1-1---|-2-2-2-2---2-2-2-2---2-2---|
E|-4-4-4-4---4-4-4-4---4-4---|---------------------------|---------------------------|

G|---------------------------|---------------------------|---------------------------|
D|---------------------------|---------------------------|---------------------------|
A|---------------------------|---------------------------|-1-1-1-1---1-1-1-1---1-1---|
E|-2-2-2-2---2-2-2-2---2-2---|-4-4-4-4---4-4-4-4---4-4---|---------------------------|


[PreVerse]

G|---------------------------|---------------------------|
D|---------------------------|---------------------------|
A|-2-2-2-2---2-2-2-2---2-2---|---------------------------|
E|---------------------------|-0-0-0-0---0-0-0-0---0-0---|

G|---------------------------|---------------------------|
D|---------------------------|---------------------------|  
A|---------------------------|---------------------------|
E|-4-4-4-4---4-4-4-4---4-4---|-0-0-0-0---0-0-0-0---0-0---|

   play PreVerse 2x


[Verse 2]
G|-------------------------|---------------------------|
D|-1-----------------------|---------------------------| x2
A|-----2---2-2----2-2/4----|-----------1-1-1-1---1-1---|
E|-------------------------|-4-4-4-4-------------------|

G|-------------------------|---------------------------|
D|-1-------4---------------|---------------------------| x2
A|-----2--------2-2-2/4----|-----------1-1-1-1---1-1---|
E|-------------------------|-4-4-4-4-------------------|



[Prechorus 2]
G|--------------------------------------------|
D|--------------------------------------------|
A|--------------------------------------------|
E|-0------------------------------------------|



[Chorus 2]
G|---------------------------|---------------------------|---------------------------|
D|---------------------------|---------------------------|---------------------------|
A|---------------------------|-1-1-1-1---1-1-1-1---1-1---|-2-2-2-2---2-2-2-2---2-2---|
E|-4-4-4-4---4-4-4-4---4-4---|---------------------------|---------------------------|

G|---------------------------|---------------------------|---------------------------|
D|---------------------------|---------------------------|---------------------------|
A|---------------------------|---------------------------|-1-1-1-1---1-1-1-1---1-1---|
E|-2-2-2-2---2-2-2-2---2-2---|-4-4-4-4---4-4-4-4---4-4---|---------------------------|


[PreVerse Again]

G|---------------------------|---------------------------|
D|---------------------------|---------------------------|
A|-2-2-2-2---2-2-2-2---2-2---|---------------------------|
E|---------------------------|-0-0-0-0---0-0-0-0---0-0---|

G|---------------------------|---------------------------|
D|---------------------------|---------------------------|  
A|---------------------------|---------------------------|
E|-4-4-4-4---4-4-4-4---4-4---|-0-0-0-0---0-0-0-0---0-0---|



[Outro]

G|-----4-----4-----4-----4-----4---|-----6-----6-----6-----6-----6---|
D|-4-4---4-4---4-4---4-4---4-4---4-|-4-4---4-4---4-4---4-4---4-4---4-|
A|---------------------------------|---------------------------------|
E|---------------------------------|---------------------------------|

G|-----8-----8-----8-----8-----8---|-----4-----4-----4-----4-----4---|
D|-6-6---6-6---6-6---6-6---6-6-----|-2-2---2-2---2-2---2-2---2-2---2-|
A|---------------------------------|---------------------------------|
E|---------------------------------|---------------------------------|

G|-----4-----4-----4-----4-----4---|-6---6-4---4-4---6---6-4---6-6---|
D|-4-4---4-4---4-4---4-4---4-4---4-|---4-----4-----4---4-----4-----4-|
A|---------------------------------|---------------------------------|
E|---------------------------------|---------------------------------|

G|-8---8-----6-6---8-----6-----8---|-----4-----4-----4-----4-----4---|
D|---6---6-6-----6---6-6---6-6-----|-2-2---2-2---2-2---2-2---2-2---2-|
A|---------------------------------|---------------------------------|
E|---------------------------------|---------------------------------|

G|-----4-----4-----4-----4-----4---|-----6-----6-----6-----6-----6---|
D|-4-4---4-4---4-4---4-4---4-4---4-|-4-4---4-4---4-4---4-4---4-4---4-|
A|---------------------------------|---------------------------------|
E|---------------------------------|---------------------------------|

G|-----8-----8-----8-----8-----8---|-----4-----4-----4-----4-----4---|---------------------------------|
D|-6-6---6-6---6-6---6-6---6-6-----|-2-2---2-2---2-2---2-2---2-2---2-|-4-------------------------------|
A|---------------------------------|---------------------------------|---------------------------------|
E|---------------------------------|---------------------------------|---------------------------------|

            
            
Suggest correction
Creating personal tab
Creating personal tab
You can edit any tab online and save it as your Personal.

You can edit, replace or remove any tab part or add personal notes – all changes will be seen only by you.

Personal tabs can be accessed anytime from any device, even offline.
Learn more »
Give kudos to tab author, rate the tab!
1 2 3 4 5
comments
print report bad tab
1 comment total.
0 reply
zoliviragh 10 Jun 13, 2017 02:53 PM

Amazing job ! Thank you so much !

guest
You may want to rate the tab now too:
select rating
Wanna post a correction for this tab? Suggest correction