Oops, an error
Loading. Please wait.

Dude Ranch Bass Tab

version 1
version 1

Album

6,073 views 6 this week
3 commentsread comments
1 2 3 4 5
worth learning
x 6
add to favorites
launch autoscroll
font size
0
reset
guitar tuner
Tab Pro tools
  • play this tab
  • loop segment
  • change instrument
  • show fretboard
  • metronome
Autoscroll
slow
fast
+/-
esc
set tempo
stop
Contributor
I wrote this down a while ago, but i'll redo it later once I actually have time to get
it right.

Apple Shampoo
Part 1
G:---------------------------------------------------------------|
D:--------------333333-555555------------------------------------|
A:--333333333333-------------------------------------------------|
E:---------------------------------------------------------------|
 " I didnt mean to deceive you..."

Part 2
G:---------------------------------------------------------------|
D:--------------333333333----------------------------------------|
A:-----------------------------------5555-8888-------------------|
E:--55555555555-----------5555555555-----------------------------|

Part 3
G:---------------------------------------------------------------|
D:---------------------------------------------------------------|
A:-3333333333333-------------------------------------------------|
E:--------------333333--111111-----------------------------------|

Part 4
G:---------------------------------------------------------------|
D:---------------------------------------------------------------|
A:--33-33-33-33--------------------------------------------------|
E:--------------11-11-11-11-33-33-33-33-11-11-11-11--------------|

Part 5
G:---------------------------------------------------------------|
D:---------------------------------------------------------------|
A:---------------------------------------------------------------|
E:-55555555555-11111111111-555555555-----------------------------|

Part 6
G:---------------------------------------------------------------|
D:---------------------------------------------------------------|
A:--5555-8888----------------------------------------------------|
E:---------------------------------------------------------------|

(then back to Part 4)

Order -
Part 1 x2
Part 2 x1
Part 1 x2
Part 2 x1
Part 3 x2
Part 4 x2
Part 3 x2
Part 4 x2
Part 5 x1
Part 6 x1

Dammit
Intro
g-------------------------------------------------------------|
d--------02------------02---------02--------------------------|
a-3-33---------------------0-00----------------20-------------|
e---------------3-33---------------------1-11-----------------|

Verse-Chorus
g-------------------------------------------------------------|
d-------------------------------------------------------------|
a-3333--------------------------------------------------------|
e---------3333-5555-1111--------------------------------------|

Bridge(i think)
g-------------------------------------------------------------|
d-------------------------------------------------------------|
a-1/3---3/5---5/7---7/9---------------------------------------|
e-------------------------------------------------------------|

intro x2
verse x4
chorus x4
intro x2
verse x4
chorus x4
bridge x2
intro x4

Degenerated
Intro and Verse
G|---------------------------------------------------------------------------|
D|---------------------------------------------------------------------------|
A|-----------8-8-8-8--5-5-5-3-3-3-3-0----------------------------------------|
E|--6-6-6-6------------------------------------------------------------------|

Chorus
G|---------------------------------------------------------------------------|
D|---------------------------------------------------------------------------|
A|-----------8-8-8-8-6-6-6-6-8-8-8-8-----------------------------------------|
E|--6-6-6-6------------------------------------------------------------------|

Dick Lips

Intro/Verse "Please mom....":
G:---------------------------------------------------------------|
D:---------------------------------------------------------------|
A:0-0-0-0-0-0-0-0-0-0-0-0-0-0-5-5-5-5-5-5-5-5-7-7-7-7-7-7-7-7-7-7|
E:---------------------------------------------------------------|

Chorus (end on E):
G:---------------------------------------------------------------|
D:---------------------------------------------------------------|
A:4-4-4-4-4-4-4-4-5-5-5-5-5-5-5-5-0-0-0-0-0-0-0-0-7-7-7-7-7-7-7-7|
E:---------------------------------------------------------------|

Part right after Chorus:
G:---------------------------------------------------------------|
D:---------------------------------------------------------------|
A:-4-4-4-4-4-4-5-5-5-5-5-5-7-7-7-7-7-7---------------------------|
E:---------------------------------------------------------------|

Part with the Tempo change right after Tom screams "right!":
G:---------------------------------------------------------------|
D:---------------------------------------------------------------|
A:0-0-0-0-0-0-0--5--4--7-7-7-7-5-5-5-5-5-------------------------|
E:---------------------------------------------------------------|

EMO
Intro:
G------------------------2-2-2-2------------------------------------------|
D-2-2-2-2-2-2-2-2-4-4-4-4-------------------------------------------------|
A-------------------------------------------------------------------------|
E-------------------------------------------------------------------------|

Riff 1:
G-------------------------------------------------------------------------|
D-------------------------------------------------------------------------|
A-2-2-2-2-2-2-2-2-4-4-4-4-0-0-0-0-----------------------------------------|
E-------------------------------------------------------------------------|

Riff 2:
G-------------------------------------------------------------------------|
D-----------------2-2-2-2-2-2-2-2-----------------------------------------|
A-1-1-1-1-1-1-1-1---------------------------------------------------------|
E-------------------------------------------------------------------------|

Chorus:
G-------------------------------------------------------------------------|
D-2-2-2-2-2-2-2-2-----------------2-2-2-2---------0-0-0-0-0-0-0-0---------|
A-----------------3-3-3-3-2-2-2-2---------2-2-2-2-----------------4-4-4-4-|
E-------------------------------------------------------------------------|

G-0-0-0-0-----------------------------------------------------------------|
D---------2-2-2-2-2-2-2-2-------------------------------------------------|
A-------------------------------------------------------------------------|
E-------------------------------------------------------------------------|

Intro   x 4
Riff 1  x 2
Riff 2  x 2
Riff 1  x 2
Riff 2  x 2
Chorus  x 1
Intro   x 2
Riff 1  x 2
Riff 2  x 2
Chours  x 1
There's a loud guitar part i'm thinkin that you play the intro during that
Intro   x 4
Play chorus(2-3x)

Enthused
G-----------------------------------------------------------------------|
D-----------------------------------------------------------------------|
A-555555----------------------------------------------------------------|
E-------------555555---7777--5555--33333--------------------------------|

G-----------------------------------------------------------------------|
D-----------------------------------------------------------------------|
A-5555555555555555------------------------------------------------------|
E------------------7777777777777777--5555555555555555-3333333333333333--|

G-----------------------------------------------------------------------|
D--------------------------------55555555--77777777---------------------|
A-55555555--77777777----------------------------------------------------|
E-----------------------------------------------------------------------|

i'm Sorry
G:-------------------------------6-----6-------|
D:----7--9--7--6-----------0--------7-----7----|
A:----------------7--7--7-----7----------------|
E:-5-------------------------------------------|

G:---------------------------------------------|
D:---------------------------------------------|
A:-----7-------7-------7-------7---------------|
E:--4-----4-4-----5-5-----5-5------------------|

G: -------------6------------------------------|
D:--7-7--7--9----------------------------------|
A:---------------------------------------------|
E:---------------------------------------------|

Josie

P= PULL OFF

INTRO
G---------------------------------------------------------------------------------------------------|
D:--------------------------------------------------------------------------------------------------|
A:---------------------------------------2P0--2P0--------------------------7-7--7-7-7--7-7-7--7-7-7-|
E:-22-----22-----22-----22-----2-2-2-----4-----4--7-7--7-7-7--7-7-7--7-7-7--------------------------|

G:----------------------------------------------------------------------------------------------------|
D:----------------------------------------------------------------------------------------------------|
A:---------------------------------------2P0--2P0---------------------------7-7--7-7-7--7-7-7--7-7-7--|
E:-22-----22-----22-----22-----2-2-2-----4-----4--7-7--7-7-7--7-7-7--7-7-7----------------------------|

G:--------------------------------------------------------------------------------------------------|
D:--------------------------------------------------------------------------------------------------|
A:--------------------------------------2P0--2P0---1---11-------------------1-7-7--7-7-7------------|
E:-22-----22-----22-----22-----2-2-2----4-----4----4-1----1--1-7-7-1--7-7-7-------------------------|

G:----------------------------------------------------------------------------------------------------|
D:----------------------------------------------------------------------------------------------------|
A:---------------------------------------2P0--2P0---------------------------7-7--7-7-7--7-7-7--7-7-7--|
E:-22-----22-----22-----22-----2-2-2-----4-----4--7-7--7-7-7--7-7-7--7-7-7----------------------------|

VERSE
G:----------------------------------------------------------------------------------|
D:----------------------------------------------------------------------------------|
A:-22-222---------------------------22-222--44-444--77-777-777-777------------------|
E:---------22-222--00-000-000-000---------------------------------------------------|

CHORUS 1
...AND WHEN I FEEL LIKE GIVING UP...
G:-----------------------------------------------------------------------------------|
D:-----------------------------------------------------------------------------------|
A:-----------------------------------22-222----------------444-444-444-444-----------|
E:-22-222-222-222-2-00-000-000-000-0--------22-222-222-222------------------000------|8X

CHORUS 2
A:-2-222-2--------------------222-----|
E:----------2-222-2--0-000-0------222-|

INTRO   1X
VERSE   2X
STOP (YEAH MY GIRLFRIEND)
VERSE   2X
CHORUS 1   1X
CHORUS 2   2X
STOP
VERSE   2X
CHORUS 1   1X
CHORUS 2   12X

Lemmings
Intro
G:---------------------------------------------------------------------|
D:---------------------------------------------------------------------|
A:--22-----22----------------------------times 2-----------------------|
E:----0000----4444-22-4444-00000000------------------------------------|

Verse
G:---------------------------------------------------------------------|
D:---------------------------------------------------------------------|
A:--------------------------------times alot---------------------------|
E:--22222222-44444444-00000000-----------------------------------------|

chorus
G:---------------------------------------------------------------------|
D:---------------------------------------------------------------------|
A:---------------------------------------------------------------------|
E:----same as verse and add this in after u play verse-----------------|

G:---------------------------------------------------------------------|
D:---------------------------------------------------------------------|
A:--22---------22------------------------------------------------------|
E:------0000-------4444------u will hear it when listening to the song-|

Outro
G:---------------------------------------------------------------------|
D:---------------------------------------------------------------------|
A:--22222222-44444444---------77777777---------------------------------|
E:-------------------44444444------------------------------------------|

Pathetic
G------------------------------------------------------------------|
D-11111111--22222222-----------------------------------------------|
A---------------------------------2222222222222222-----------------|
E------------------------------------------------------------------|

G------------------------------------------------------------------|
D-------------------------------44444444--22222222-----------------|
A-2222222222222222-------------------------------------------------|
E------------------------------------------------------------------|

G------------------------------------------------------------------|
D------------------------------------------------------------------|
A-----------------------2------------------------2-----------------|
E-444444444444-----222222222222----000000000000--------------------|

Untitled

G:-------------------------------------------------------------------------|
D:-------------------------------------------------------------------------|
A:-222222---2222-----------------------------------------------------------|
E:------------------000000----2222-----------------------------------------|
easy enough?

Vouyer
Verse:
G|---------------------------------------------------------------------------|
D|---------------------------------------------------------------------------|
A|--3-3-3-3-0-0-0-0----------------------------------------------------------|
E|------------------1-1-1-1--------------------------------------------------|

Chorus:
G|---------------------------------------------------------------------------|
D|-----------------------3---------------------------------------------------|
A|---------------3-3-3-3---3-3-3-3---------------------3-3-3-3---------------|
E|--3-3-3-1-1-1--------------------3---3-3-3-3-1-1-1-1---------3-3-3-3-------|

G|---------------------------------------------------------------------------|
D|----------3-------------------3--------------------------------------------|
A|--3-3-3-3---3-3-3-3---3-3-3-3---3-3-3-3------------------------------------|
E|--------------------3-------------------3----------------------------------|

Then for the "La La La" part.....you know....:
G|---------------------------------------------------------------------------|
D|---------------------------------------------------------------------------|
A|--3-3-3-3------------------------------------------------------------------|
E|----------3-3-3-3-5-5-5-5-1-1-1-1------------------------------------------|

Didn't get the bass solo sorry

Waggy

Verse:
G:-------------------------------------------------------------------|
D:-------------------------------------------------------------------|
A:0-0-0-0-0-0-0-0-0-0-0-0-0-9999999999-7-5-5-5-5-5-5-5-5-------------|
E:-------------------------------------------------------------------|

Chorus:(Play it in full, then repeat with out the part after the stars)
G:------------------------------------------------------*-------------|
D:------------------------------------------------------*-------------|
A:----------5-5-5-5-5-5-2-2-2-2-2-2----------5-5-5-5-5-5*-0-0-0-0-0-0-|
E:2-2-2-2-2-------------------------2-2-2-2-2-----------*-------------|
comments
print report bad tab
3 comments total.
0 reply
LastRockShow wrote on October 25 2004, 12:00 am

i think it's "*** Lips" man

0 reply
LastRockShow wrote on October 25 2004, 12:00 am

dikk....lol

0 reply
Uncommonresults wrote on December 25 2004, 12:00 am

ok i tried to post my new album tab but it hasn't been accepted yet so it might be up in a few days since i think they're out of the office on christmas...

I want to post or [tab]
guest
You may want to rate the tab now too:
select rating
Please do not post tabs as comments. Select "correction" instead!