Oops, an error
Loading. Please wait.

Easy Target tab

version 3
version 3
530 views 3 this week
2 commentsread comments
1 2 3 4 5
x 5
add to favorites
×
Save as Personal and add changes to this tab that will be seen only by you. Learn more ›
×
You can save this tab as Personal to edit and correct it or add notes. All changes will be seen only by you. Learn more »
launch autoscroll
font size
0
reset
how to read this tab
guitar tuner
edit
Autoscroll
slow
fast
+/-
esc
set tempo
stop
Author
-----------------------------------------------------------------------------
                             Easy Target - Blink 182
-----------------------------------------------------------------------------
Tabbed by:J.C
Email:weejonnycurrie@hotmail.com

Tuning:Standard
Okay, I've looked at these other tabs, and they aint quite the way I play it,
so I'm gonna show you the way I play it, only because its a bit easier and still
sounds just as good. (I'm mainly talking about the bit at the end) 

Intro (Play 4 times)
e|----------------------------|
B|----------------------------|
G|-----------2222-------------|
D|--44444444-2222-2222--------|
A|--44444444-0000-2222--------|
E|--22222222------0000--------|

Verse 1 - 'All her signals...' (Play 4 times)
e|-------------------------------|
B|-------------------------------|
G|---666666666666666-444-666-----|
D|---xxxxxxxxxxxxxxx-xxx-xxx-7---|
A|---444444444444444-222 444-x---|
E|---------------------------5---|

Chorus - 'Holly's lookin' dry...' (Play 4 times)
e|----------------------------|
B|----------------------------|
G|-----------2222-------------|
D|--44444444-2222-2222--------|
A|--44444444-0000-2222--------|
E|--22222222------0000--------|

End on this chord as the second verse comes in.
e|--------|
B|--------|
G|--------|
D|--7-----|
A|--x-----|
E|--5-----|

Verse 2 - 'She's got a mission...'  (Base plays this part twice)
G|-------------------------------|
D|-------------------------------|
A|----------------2224445--------|
E|--22202055554555---------------|

The Guitar the comes in and plays this twice - 'Savour the moment...'
e|------------------|
B|------------------|
G|--6------4-6------|
D|--x------x-x-7----|
A|--4------2-4-x----|
E|-------------5----|

Chorus - 'Holly's lookin' dry...' (Play 4 times)
e|----------------------------|
B|----------------------------|
G|-----------2222-------------|
D|--44444444-2222-2222--------|
A|--44444444-0000-2222--------|
E|--22222222------0000--------|

Outro - 'Better run run run...' (Play 3 times)
e|--------------------------|
B|--------------------------|
G|---77777777---------------|
D|---77777777-7777-2222-----|
A|---55555555-7777-2222-----|
E|------------5555-0000-----|

e|--------------------------|
B|--------------------------|
G|---77777777-6666666-------|
D|---77777777-6666666-------|
A|---55555555-4444444-------|
E|--------------------------|

Okay, this is the bit that is a little different, though it's alot easier to
play than having to slide up and down the fert board playing a power chord and
it sounds just as good.

Play several times then fade, and maybe start playing All of This, if you want.
e|--------------------------------|
B|--------------------------------|
G|--------------------------------|
D|--------------------------------|
A|-----0h2-0--0h2-4-4/5-2-2p0-----|
E|-2h4----------------------------|

And that should be it. That last bit is different from the other tabbers, but is
easier to play, so if you were struggling to complete the song, then this should
have helped. Just email me though if you are having problems.
Suggest correction
Creating personal tab
Creating personal tab
You can edit any tab online and save it as your Personal.

You can edit, replace or remove any tab part or add personal notes – all changes will be seen only by you.

Personal tabs can be accessed anytime from any device, even offline.
Learn more »
comments
print report bad tab
2 comments total.
0 reply
Klausi 60 Jan 09, 2004 07:00 PM

i think the riff at the end are chords

0 reply
Hugh .G.Rection 10 Sep 07, 2004 08:00 PM

its like this
A-------------2-4-4/5\2--2
E-2-4-5/7\5-5

guest
You may want to rate the tab now too:
select rating
Wanna post a correction for this tab? Suggest correction