Oops, an error
Loading. Please wait.

Enema Of The State Bass Tab

version 2
version 2

Album

Interactive

2,860 views 3 this week
no commentswrite comment
1 2 3 4 5
worth learning
x 6
add to favorites
launch autoscroll
font size
0
reset
guitar tuner
Tab Pro tools
  • play this tab
  • loop segment
  • change instrument
  • show fretboard
  • metronome
×
Best way to learn
"Enema Of The State"
Autoscroll
slow
fast
+/-
esc
set tempo
stop
Contributor
Artist: Blink-182
Album: Enema of the State
Tabbed by: Spartan101
E-mail: zpro@sbcglobal.net
Tuning: Standard

ALBUM ORDER
1.Dumpweed
2.Don't Leave Me
3.Alien's Exist
4.Going Away to College
5.What's My Age Again?
6.Dysentery Gary
7.Adam's Song
8.All the Small Things
9.Party Song*
10.Mutt
11.Wendy Clear*
12.Anthem

This whole album is primarily simple to play compared to the bass of Dude Ranch.
The bass rarely has its moments where it takes a solo or has a neat line in the
background. Mark uses a lot more eighth notes as back up to the guitar. But, it's
blink so I don't care. They're my favorite band and it's always fun to bust out
some Blink so enjoy this tab.

~if there is a x# on the right of a bar, play that bar only the indicated # of
times then continue on to the next line. If there is no #, then play it once

~I'm not going to put the play order at the end of every song nut I'll put what's
played in each part of each song and if a part is repeated, I will simply put the
part of the song needed to be repeated. (e.g. "Verse"—play the verse as it was played
originally.) I will tell you if there is a change in the section and if you play it
less times or more times than before.

~If I put a (x#) next to the name of the song section, it indicates how many times
you play the entire section of the song, not just one line. If there is no #, then
play the section once

| /  slide up
| \  slide down
| h  hammer-on
| p  pull-off
| ~  vibrato
| x  Mute note

-----------------------------------------------------------------------

1. DUMPWEED

Intro
G-------------------------|
D-------------------------|
A-------------------------|
E-0~---0-0~-----5~---5-5~-|

G-------------------------------------|
D-------------------------------------|
A-----------00000000-222222222222-000-| x2
E--00000000---------------------------|

Verse (x2)
G---------------------------------------------------------------------|
D---------------------------------------------------------------------| 
A----------22222------------22222---00000000-22222---00000000-2222h4p2|
E-00000000---------00000000-------------------------------------------|

Intro (first part only)

Chorus
G--------------------------------------------------------------------|
D--------------------------------------------------------------------|
A-----------22222222-00000000-22222222----------22222222-0000000-2—2-|
E--00000000----------------------------00000000----------------------|

Intro (second part only)
Verse (x1)
Intro (first part only)
Chorus (x2)

Outro (x4)
G-----------------------------------------------------------------|
D-----------------------------------------------------------------|
A----------22222-----------22222---0000000-22222---00000000-22222-|
E—-0000000---------0000000----------------------------------------|

-----------------------------------------------------------------------

2. DON'T LEAVE ME

Intro (x2)
G-----------------------------------------------------------|
D-----------------------------------------------------------|
A-xxx-0-0-0-0-0-xxx-5-5-5-5-5-xxx-2-2-2-2-5-5-5-5-7-7-7-7-7-|
E-----------------------------------------------------------| 

Verse
G-------------------------------------|
D-------------------------------------|
A-00000000-55555555-22222222-55555555-|
E-------------------------------------|

G---------------------------------------|
D---------------------------------------|
A-00000000-55555555-22222222-55557xxxxx-|
E---------------------------------------|

Chorus 
G---------------------|
D---------------------| 
A-0000-2222-5555-7777-| x3
E---------------------|

G--------------------|
D--------------------|
A-0000-2222-55555xxx-|
E--------------------|

Intro
Verse
Chorus

Bridge (x8)
G--------------------|
D------9999-77777777-|
A-0000-7777-55555555-|
E--------------------|

Chorus

Outro
G----------------------------------------|
D----------------------------------------|
A-00000000-55555555-22222222-5555-7--0~~-|
E----------------------------------------|

-----------------------------------------------------------------------

3. ALIEN'S EXIST

Intro (there's a drum lick and then play when guitar starts muting)
G--------------------|
D-44444444-----------|
A-22222222-4444-6666-|
E--------------------|

Verse
G-------------------------------------|
D-------------------------------------|
A-22222222----------------------------| x2
E----------22222222-44444444-00000000-|

G-------------------------------------|
D-------------------------------------|
A-22222222-44444444-------------------|
E-------------------44444444-00000000-|

G-------------------------------------|
D-------------------------------------|
A-22222222----------------------------|
E----------22222222-44444444-00000000-|

Interlude (x2)
G-----------------------------|
D-----------------------------|
A-22222-----------------------|
E--------00-0-0-44444--00-0-0-|

Verse 

(this is the final line in the verse)
G----------------------------|
D----------------------------|
A-22222222-------------------|     this time the last 0s will
E----------22222222-44444444-| <<< be replaced by a drum lick

Chorus (x2)
G-----------------------------------|
D-------------2222------------------|
A-222222222222----------------------|
E------------------2222222222222222-|

Post-chorus
G-----------------------------------|
D-----------------------------------|
A-----------------------------------| x2
E-4444444444442222-0000000000000000-|

G-----------------------|
D---------4~~~~~~~------|
A---------2~~~~~~~------|
E-2~~~0~~~--------2~~~0-|

Interlude

Verse

(This is the last line as well)
G------------------------------|
D------------------------------|
A-22222222---------------------|
E----------22222222-44444444-0-|

Chorus 
Post-chorus

Bridge
G----------------------------------------------------------------------|
D----------------------------------------------------------------------|
A----------------------------------------------------22222222----------|
E-4444444444444444-2222222222222222-0000000000000000----------22222222-|

G----------------------------------------------------------------------|
D----------------------------------------------------------------------|
A----------------------------------------------------22222222-44444444-| x2
E-4444444444444444-2222222222222222-0000000000000000-------------------|

G-----------------------------------------------------------------------|
D-----------------------------------------------------------------4-444-|
A-6-6-6-6-6-6-6-6-9-9-9-9-9-9-9-9-7-7-7-7-7-7-7-7-2-2-2-2-2-2-2-2-------|
E-----------------------------------------------------------------------|

Chorus

Post-chorus

(the second line should be like this)
G------------------|
D---------4~~~~~~~-| 
A---------2~~~~~~~-| x2
E-2~~~0~~~---------|

------------------------------------------------------------------------

4. GOING AWAY TO COLLEGE

The song starts off with the guitar then after it stops the bass comes in
with the guitar's single notes

Intro (x2)
G---------------------------------|
D---------------------------------|
A-222-222-222-222-----------------|
E-----------------000-000-222-222-|

Verse (x4)
G---------------------------------|
D---------------------------------|
A-2-2-2-2-2-2-2-2-7-7-7-7-9-9-9-9-|
E---------------------------------|

Interlude (x2)
G----------------------------|
D----------------------------|
A-6-66-6-666-7-7-7-7-9-9-9-9-|
E----------------------------|

Intro
Verse
Interlude

Chorus 
G---------------------------------|
D---------------------------------|
A-6-6-6-6-7-7-7-7-----------------| x3
E-----------------7-7-7-7-2-2-2-2-|

G------------------------------|
D------------------------------|
A-6-6-6-6-7-7-7-7--------------|
E-----------------7-7-7-7-2~~~-|

Intro
Verse (x2)
Interlude
Chorus

Bridge (the first hammer is fast but the second is slow. Listen to the CD.)
G-------------------------------------------------|
D-------------------------------------------------|
A-2~~~~~~~7~~~~~~~7h9p7-2~~~~~~~2h4-6-7~~~~~~~9-7-|
E-------------------------------------------------|

Chorus

------------------------------------------------------------------------

5. WHAT'S MY AGE AGAIN?

The timing to start seems funky but, again, listening to the CD will help the timing.

Intro/Verse
G---------------------|
D---------------------|
A-2222------4444-6666-| x5
E------2222-----------|

G------------------------------|
D------------------------------|
A--2222------44444444-22222222-| 
E-------2222-------------------|

Chorus
G--------------------|
D--------------------|
A----44---66---22222-| x3
E--2-----------------|

G--------------------------------|
D--------------------------------|
A----44---66666666-44444444-2~~~-|<<
                                        
comments
print report bad tab
I want to post or [tab]
guest
You may want to rate the tab now too:
select rating
Please do not post tabs as comments. Select "correction" instead!