Oops, an error
Loading. Please wait.

Enema Of The State album bass

version 3
version 3

Album

Interactive

199 views 3 this week
no commentswrite comment
1 2 3 4 5
1 last vote to show rating
add to favorites
×
Save as Personal and add changes to this tab that will be seen only by you. Learn more ›
×
You can save this tab as Personal to edit and correct it or add notes. All changes will be seen only by you. Learn more »
launch autoscroll
font size
0
reset
guitar tuner
edit
Autoscroll
slow
fast
+/-
esc
set tempo
stop
Author
Enema of the State - Blink 182


Enema of the State is the third studio album by American rock band Blink-182. Produced by Jerry Finn, the 
album was released on June 1, 1999 by MCA Records. Enema of the State was an enormous commercial success.
The album sold over 15 million copies worldwide, catapulting the band to become one of the biggest rock
bands of the turn of the century. "What's My Age Again?", "All the Small Things" and "Adam's Song" became 
hit singles and MTV staples, generating heavy radio airplay. Enema of the State had an extensive impact 
on contemporary pop punk, reinventing it for a new generation and spawning countless tributes and acolytes.



- Tracklist


1.      "Dumpweed"              
2.      "Don't Leave Me"        
3.      "Aliens Exist"          
4.      "Going Away to College" 
5.      "What's My Age Again?"  
6.      "Dysentery Gary"        
7.      "Adam's Song"   
8.      "All the Small Things"          
9.      "The Party Song"        
10.     "Mutt"          
11.     "Wendy Clear"   
12.     "Anthem"        



** All Songs Tabbed By BlenderBR



-----------------------------------------------------------------------------
                         1. Dumpweed 
-----------------------------------------------------------------------------

- Intro:

|----------------|----------------|----------------|----------------|
|----------------|----------------|----------------|----------------|
|----------------|----------------|----------------|----------------|
|-0r-------------|--------------0-|0r--------------|----------------|

|----------------|----------------|----------------|----------------|
|----------------|----------------|----------------|----------------|
|-0r-------------|--------------0-|0r--------------|----------------|
|----------------|----------------|----------------|----------------|

|-----------------|-----------------|-----------------|-----------------|
|-----------------|-----------------|-----------------|-----------------|
|-----------------|-0-0---0-0-0-0-0-|-2-2-2-2-2-2-2-2-|-2-2---2-2-0-0-0-|
|-0-0-0-0-0-0-0-0-|-----------------|-----------------|-----------------|

|-----------------|-----------------|-----------------|-----------------|
|-----------------|-----------------|-----------------|-----------------|
|-----------------|-0-0---0-0-0-0-0-|-2-2-2-2-2-2-2-2-|-2-2---2-2-0-0-0-|
|-0-0-0-0-0-0-0-0-|-----------------|-----------------|-----------------|



- Verse 1:
(It's understood...)

|-----------------|-----------------|-----------------|-----------------|
|-----------------|-----------------|-----------------|-----------------|
|-----------------|-2-2-2-2-2-------|-----------------|-2-2-2-2-2-------|
|-0-0-0-0-0-0-0-0-|-----------------|-0-0-0-0-0-0-0-0-|-----------------|

|-----------------|-----------------|-----------------|-----------------|
|-----------------|-----------------|-----------------|-----------------|
|-0-0-0-0-0-0-0-0-|-2-2-2-2-2-------|-0-0-0-0-0-0-0-0-|-2-2-2-2-2h4-2---|
|-----------------|-----------------|-----------------|-----------------|


(But this I ask...)
|-----------------|-----------------|-----------------|-----------------|
|-----------------|-----------------|-----------------|-----------------|
|-----------------|-2-2-2-2-2-------|-----------------|-2-2-2-2-2-------|
|-0-0-0-0-0-0-0-0-|-----------------|-0-0-0-0-0-0-0-0-|-----------------|

|-----------------|-----------------|-----------------|-----------------|
|-----------------|-----------------|-----------------|-----------------|
|-0-0-0-0-0-0-0-0-|-2-2-2-2-2-------|-0-0-0-0-0-0-0-0-|-2-2-2-2-2h4-2---|
|-----------------|-----------------|-----------------|-----------------|



- Pre-Chorus:

|----------------|----------------|----------------|----------------|
|----------------|----------------|----------------|----------------|
|----------------|----------------|----------------|----------------|
|-0r-------------|----------------|0r--------------|----------------|

|----------------|----------------|----------------|----------------|
|----------------|----------------|----7-----7-----|9---------------|
|-0r-------------|----------------|-------0-----0--|--------9-------|
|----------------|----------------|----------------|----7---7-------|



- Chorus:
(She's a dove...)

|-----------------|-----------------|-----------------|-----------------|
|-----------------|-----------------|-----------------|-----------------|
|-----------------|-2-2-2-2-2-2-2-2-|-0-0-0-0-0-0-0-0-|-2-2-2-2-2-2-2-2-|
|-0-0-0-0-0-0-0-0-|-----------------|-----------------|-----------------|

|-----------------|-----------------|-----------------|-----------------|
|-----------------|-----------------|-----------------|-----------------|
|-----------------|-2-2-2-2-2-2-2-4-|-0-0-0-0-0-0-0-0-|----2-----2------|
|-0-0-0-0-0-0-0-0-|-----------------|-----------------|-----------------|



- Post-Chorus:

|-----------------|-----------------|-----------------|-----------------|
|-----------------|-----------------|-----------------|-----------------|
|-----------------|-0-0---0-0-0-0-0-|-2-2-2-2-2-2-2-2-|-2-2---2-2-0-0-0-|
|-0-0-0-0-0-0-0-0-|-----------------|-----------------|-----------------|

|-----------------|-----------------|-----------------|-----------------|
|-----------------|-----------------|-----------------|-----------------|
|-----------------|-0-0---0-0-0-0-0-|-2-2-2-2-2-2-2-2-|-2-2---2-2-0-0-0-|
|-0-0-0-0-0-0-0-0-|-----------------|-----------------|-----------------|



- Verse 2:
(I heard it once...)

|-----------------|-----------------|-----------------|-----------------|
|-----------------|-----------------|-----------------|-----------------|
|-----------------|-2-2-2-2-2-------|-----------------|-2-2-2-2-2-------|
|-0-0-0-0-0-0-0-0-|-----------------|-0-0-0-0-0-0-0-0-|-----------------|

|-----------------|-----------------|-----------------|-----------------|
|-----------------|-----------------|-----------------|-----------------|
|-0-0-0-0-0-0-0-0-|-2-2-2-2-2-------|-0-0-0-0-0-0-0-0-|-2-2-2-2-2h4-2---|
|-----------------|-----------------|-----------------|-----------------|


(He would say...)
|-----------------|-----------------|-----------------|-----------------|
|-----------------|-----------------|-----------------|-----------------|
|-----------------|-2-2-2-2-2-------|-----------------|-2-2-2-2-2-------|
|-0-0-0-0-0-0-0-0-|-----------------|-0-0-0-0-0-0-0-0-|-----------------|

|-----------------|-----------------|-----------------|-----------------|
|-----------------|-----------------|-----------------|-----------------|
|-0-0-0-0-0-0-0-0-|-2-2-2-2-2-------|-0-0-0-0-0-0-0-0-|-2-2-2-2-2h4-2---|
|-----------------|-----------------|-----------------|-----------------|



- Pre-Chorus:

|----------------|----------------|----------------|----------------|
|----------------|----------------|----------------|----------------|
|----------------|----------------|----------------|----------------|
|-0r-------------|----------------|0r--------------|----------------|

|----------------|----------------|----------------|----------------|
|----------------|----------------|----7-----7-----|9---------------|
|-0r-------------|----------------|-------0-----0--|--------9-------|
|----------------|----------------|----------------|----7---7-------|



- Chorus:
(She's a dove...)

|-----------------|-----------------|-----------------|-----------------|
|-----------------|-----------------|-----------------|-----------------|
|-----------------|-2-2-2-2-2-2-2-2-|-0-0-0-0-0-0-0-0-|-2-2-2-2-2-2-2-2-|
|-0-0-0-0-0-0-0-0-|-----------------|-----------------|-----------------|

|-----------------|-----------------|-----------------|-----------------|
|-----------------|-----------------|-----------------|-----------------|
|-----------------|-2-2-2-2-2-2-2-4-|-0-0-0-0-0-0-0-0-|----2-----2------|
|-0-0-0-0-0-0-0-0-|-----------------|-----------------|-----------------|


(She's a dove...)
|-----------------|-----------------|-----------------|-----------------|
|-----------------|-----------------|-----------------|-----------------|
|-----------------|-2-2-2-2-2-2-2-2-|-0-0-0-0-0-0-0-0-|-2-2-2-2-2-2-2-2-|
|-0-0-0-0-0-0-0-0-|-----------------|-----------------|-----------------|

|-----------------|-----------------|-----------------|-----------------|
|-----------------|-----------------|-----------------|-----------------|
|-----------------|-2-2-2-2-2-2-2-4-|-0-0-0-0-0-0-0-0-|----2-----2------|
|-0-0-0-0-0-0-0-0-|-----------------|-----------------|-----------------|



- Outro:

|-----------------|-----------------|-----------------|-----------------|
|-----------------|-----------------|-----------------|-----------------|
|-----------------|-2-2-2-2-2-------|-----------------|-2-2-2-2-2-------|
|-0-0-0-0-0-0-0-0-|-----------------|-0-0-0-0-0-0-0-0-|-----------------|

|-----------------|-----------------|-----------------|-----------------|
|-----------------|-----------------|-----------------|-----------------|
|-0-0-0-0-0-0-0-0-|-2-2-2-2-2-------|-0-0-0-0-0-0-0-0-|-2-2-2-2-2-------|
|-----------------|-----------------|-----------------|-----------------|


(Need a girl that I can train...)
|-----------------|-----------------|-----------------|-----------------|
|-----------------|-----------------|-----------------|-----------------|
|-----------------|-2-2-2-2-2-------|-----------------|-2-2-2-2-2-------|
|-0-0-0-0-0-0-0-0-|-----------------|-0-0-0-0-0-0-0-0-|-----------------|

|-----------------|-----------------|-----------------|-----------------|
|-----------------|-----------------|-----------------|-----------------|
|-0-0-0-0-0-0-0-0-|-2-2-2-2-2-------|-0-0-0-0-0-0-0-0-|-2-2-2-2-2-------|
|-----------------|-----------------|-----------------|-----------------|

|-----------------|-----------------|-----------------|-----------------|
|-----------------|-----------------|-----------------|-----------------|
|-----------------|-2-2-2-2-2-------|-----------------|-2-2-2-2-2-------|
|-0-0-0-0-0-0-0-0-|-----------------|-0-0-0-0-0-0-0-0-|-----------------|

|-----------------|-----------------|-----------------|-----------------|
|-----------------|-----------------|-----------------|-----------------|
|-0-0-0-0-0-0-0-0-|-2-2-2-2-2-------|-0-0-0-0-0-0-0-0-|-2-2-2-2-2-------|
|-----------------|-----------------|-----------------|-----------------|


(Need a girl that I can train...)
|-----------------|-----------------|-----------------|-----------------|
|-----------------|-----------------|-----------------|-----------------|
|-----------------|-2-2-2-2-2-------|-----------------|-2-2-2-2-2-------|
|-0-0-0-0-0-0-0-0-|-----------------|-0-0-0-0-0-0-0-0-|-----------------|

|-----------------|-----------------|-----------------|-----------------|
|-----------------|-----------------|-----------------|-----------------|
|-0-0-0-0-0-0-0-0-|-2-2-2-2-2-------|-0-0-0-0-0-0-0-0-|-2-2-2-2-2-------|
|-----------------|-----------------|-----------------|-----------------|



-----------------------------------------------------------------------------
                           2. Don't Leave Me
-----------------------------------------------------------------------------

- Intro 

G|-------------------------------------------|
D|-------------------------------------------|
A|--xxxx-0000-xxxx-5555-xxxx-2222-5555-7777--|
E|-------------------------------------------|

G|-------------------------------------------|
D|-------------------------------------------|
A|--xxxx-0000-xxxx-5555-xxxx-2222-5555-7777--|
E|-------------------------------------------|



- Verse:
(Don't leave me...)

G|---------------------------------------|
D|---------------------------------------|
A|--00000000-55555555-22222222-55555555--|
E|---------------------------------------|

G|----------------------------------------|
D|----------------------------------------|
A|--00000000-55555555-22222222-5555-7777--|
E|----------------------------------------|



- Chorus:
(She said that I'm...)

G|-----------------------|
D|-----------------------|
A|--0000-2222-5555-7777--|  x3
E|-----------------------|

G|----------------------|
D|----------------------|
A|--0000-2222-55555555--|
E|----------------------|



- Post-Chorus

G|-------------------------------------------|
D|-------------------------------------------|
A|--xxxx-0000-xxxx-5555-xxxx-2222-5555-7777--|
E|-------------------------------------------|

G|-------------------------------------------|
D|-------------------------------------------|
A|--xxxx-0000-xxxx-5555-xxxx-2222-5555-7777--|
E|-------------------------------------------|


- Verse:
(One more chance...)

G|---------------------------------------|
D|---------------------------------------|
A|--00000000-55555555-22222222-55555555--|
E|---------------------------------------|

G|----------------------------------------|
D|----------------------------------------|
A|--00000000-55555555-22222222-5555-7777--|
E|----------------------------------------|



- Chorus:
(She said that I'm...)

G|-----------------------|
D|-----------------------|
A|--0000-2222-5555-7777--|  x3
E|-----------------------|

G|----------------------|
D|----------------------|
A|--0000-2222-55555555--|
E|----------------------|



- Bridge

G|----------------------|
D|--7777-9999-77777777--|
A|--0000-7777-55555555--|  x4
E|----------------------|


(Let's try this one more time...)

G|----------------------|
D|--7777-9999-77777777--|
A|--0000-7777-55555555--|  x4
E|----------------------|



- Chorus:
(She said that I'm...)

G|-----------------------|
D|-----------------------|
A|--0000-2222-5555-7777--|  x3
E|-----------------------|

G|----------------------|
D|----------------------|
A|--0000-2222-55555555--|
E|----------------------|



Outro:
(Don't leave me...)

G|-------------------------------------------|
D|-------------------------------------------|
A|--00000000-55555555-22222222-5555-7----0r--|
E|-------------------------------------------|



-----------------------------------------------------------------------------
                           3. Aliens Exist
-----------------------------------------------------------------------------

r = Let it Ring


Intro

G|----------------------------|
D|----------------------------|
A|-------------22222-444-666--|
E|----------------------------|

Verse 

(Hey mom there's something in the backroom...)

G|-------------------------------|
D|-------------------------------|
A|--222222-----------------------|
E|---------222222-444444-000000--|  x2

(You used to read me stories...)

G|-------------------------------|
D|-------------------------------|
A|--222222-444444----------------|
E|----------------444444-000000--|

G|-------------------------------|
D|-------------------------------|
A|--222222-----------------------|
E|---------222222-444444-000000--|

Instrumental

G|-------------------------------|
D|-------------------------------|
A|--222222-----------------------|
E|---------222222-444444-000000--| 

G|-------------------------------|
D|-------------------------------|
A|--022222-----------------------|
E|---------222222-444444-000000--| 

(What if people knew that these were real...)

G|-------------------------------|
D|-------------------------------|
A|--222222-----------------------|
E|---------222222-444444-000000--|  x2

((I know the CIA would say...)

G|-------------------------------|
D|-------------------------------|
A|--222222-444444----------------|
E|----------------444444-000000--|

G|---------------------------|
D|---------------------------|
A|--222222-------------------|
E|---------222222-444444-0r--|

Chorus

(Up all night long...)

G|-----------------------------------------------|
D|-----------------------------------------------|
A|--22222222-024----------22222222-024-----------|
E|---------------22222222--------------22222222--| 

(I know it must be late...)

G|-----------------------|
D|-----------------------|
A|-----------------------|
E|--44444444-2-00000000--| x2

(I'm not like you guys...)

G|----------------------|
D|----------------------|
A|----------2r----------|
E|--2r--0r------2r--0r--|

Instrumental

G|-------------------------------|
D|-------------------------------|
A|--222222-----------------------|
E|---------222222-444444-000000--| 

G|-------------------------------|
D|-------------------------------|
A|--022222-----------------------|
E|---------222222-444444-000000--| 

Verse

(I am still the skeptic yes you know me...)

G|-------------------------------|
D|-------------------------------|
A|--222222-----------------------|
E|---------222222-444444-000000--|  x2

(I got an injection...)

G|-------------------------------|
D|-------------------------------|
A|--222222-444444----------------|
E|----------------444444-000000--|

G|---------------------------|
D|---------------------------|
A|--222222-------------------|
E|---------222222-444444-0r--|

Chorus

(Up all night long...)

G|-----------------------------------------------|
D|-----------------------------------------------|
A|--22222222-024----------22222222-024-----------|
E|---------------22222222--------------22222222--| 

(I know it must be late...)

G|-----------------------|
D|-----------------------|
A|-----------------------|
E|--44444444-2-00000000--| x2

(I'm not like you guys...)

G|----------------------|
D|----------------------|
A|----------2r----------|
E|--2r--0r------2r--0r--|

Instumental/Bridge

G|----------------------------------------|
D|----------------------------------------|
A|-----------------------------2222-------|
E|--44444444-22222222-00000000------2222--| 

G|----------------------------------------|
D|----------------------------------------|
A|--------------------77777777-2222-------|
E|--44444444-22222222---------------2222--| 

(Dark and scary, ordinary, explanation...)

G|----------------------------------------|
D|----------------------------------------|
A|-----------------------------2222-------|
E|--44444444-22222222-00000000------2222--| 

G|----------------------------------------|
D|----------------------------------------|
A|--------------------77777777-2222-------|
E|--44444444-22222222---------------2222--| 


Chorus

(Up all night long...)

G|-----------------------------------------------|
D|-----------------------------------------------|
A|--22222222-024----------22222222-024-----------|
E|---------------22222222--------------22222222--| 

(I know it must be late...)

G|-----------------------|
D|-----------------------|
A|-----------------------|
E|--44444444-2-00000000--| x2


(I'm not like you guys...)

G|--------------------------|
D|--------------------------|
A|----------2r----------2r--|
E|--2r--0r------2r--0r------|



-----------------------------------------------------------------------------
                           4. Going Away to College
-----------------------------------------------------------------------------

- Intro: No Bass



- Pre-Verse:

G|--------------------------------|
D|--------------------------------|  
A|--222222222222------------------|
E|----------------000000--222222--|

G|--------------------------------|
D|--------------------------------|  
A|--222222222222------------------|
E|----------------000000--222222--|



- Verse:
(Please take me...)

G|--------------------------------|  
D|--------------------------------|
A|--222222222222--777777--999999--|
E|--------------------------------|

G|-----------------------------------|  
D|-----------------------------------|
A|--222222222222--777777--999-9-9-9--|
E|-----------------------------------|



- Pre-Chorus:
(Don't forget to...)

G|---------------------------|
D|---------------------------|    
A|--2-2-2-2--777777--999999--|
E|---------------------------|

G|---------------------------|
D|---------------------------|    
A|--2-2-2-2--777777--999999--|
E|---------------------------|



- Pre-Verse:

G|--------------------------------|
D|--------------------------------|  
A|--222222222222------------------|
E|----------------000000--222222--|

G|--------------------------------|
D|--------------------------------|  
A|--222222222222------------------|
E|----------------000000--222222--|



- Verse:
(Why does it feel...)

G|--------------------------------|  
D|--------------------------------|
A|--222222222222--777777--999999--|
E|--------------------------------|

G|-----------------------------------|  
D|-----------------------------------|
A|--222222222222--777777--999-9-9-9--|
E|-----------------------------------|



- Pre-Chorus:
(Don't depend on me...)

G|---------------------------|
D|---------------------------|    
A|--2-2-2-2--777777--999999--|
E|---------------------------|

G|---------------------------|
D|---------------------------|    
A|--2-2-2-2--777777--999999--|
E|---------------------------|



- Chorus:
(I haven't been this scared...)

G|-----------------------------------------|
D|-----------------------------------------|      
A|--66666666------------2222222------------|  x3
E|------------00000000-----------22222222--|

G|-----------------------------------|
D|-----------------------------------|      
A|--66666666------------2222222------| 
E|------------00000000-----------2r--|



- Pre-Verse:

G|--------------------------------|
D|--------------------------------|  
A|--222222222222------------------|
E|----------------000000--222222--|

G|--------------------------------|
D|--------------------------------|  
A|--222222222222------------------|
E|----------------000000--222222--|



- Verse:
(I'll think about...)

G|--------------------------------|  
D|--------------------------------|
A|--222222222222--777777--999999--|
E|--------------------------------|

G|-----------------------------------|  
D|-----------------------------------|
A|--222222222222--777777--999-9-9-9--|
E|-----------------------------------|



- Pre-Chorus:
(I'd ditch my lecture...)

G|---------------------------|
D|---------------------------|    
A|--2-2-2-2--777777--999999--|
E|---------------------------|

G|---------------------------|
D|---------------------------|    
A|--2-2-2-2--777777--999999--|
E|---------------------------|



- Chorus:
(I haven't been this scared...)

G|-----------------------------------------|
D|-----------------------------------------|      
A|--66666666------------2222222------------|  x3
E|------------00000000-----------22222222--|

G|-----------------------------------|
D|-----------------------------------|      
A|--66666666------------2222222------| 
E|------------00000000-----------2r--|


- Bridge:

G|---------------------------------------------------------------|
D|---------------------------------------------------------------|    
A|--2r--------7r--------7h9-2r--------2/6-9-7--------9999--7777--|
E|---------------------------------------------------------------|



- Chorus:
(I haven't been this scared...)

G|-----------------------------------------|
D|-----------------------------------------|      
A|--66666666------------2222222------------|  x3
E|------------00000000-----------22222222--|

G|------------------------------------|
D|------------------------------------|      
A|--66666666------------22222222--9r--| 
E|------------00000000----------------|



-----------------------------------------------------------------------------
                           5. What's My Age Again
-----------------------------------------------------------------------------

r = Let it Ring



- Intro: 

G|------------------------------------------------------------------------------|
D|------------------------------------------------------------------------------|  
A|------------------------------2222--------4444--6666--2222--------4444--6666--|
E|------------------------------------2222--------------------2222--------------|



- Verse:
(I took her out it...)


G|--------------------------|
D|--------------------------|  
A|--2222--------4444--6666--|  x3
E|--------2222--------------|


G|----------------------------------|
D|----------------------------------|  
A|--2222--------44444444--22222222--|  
E|--------2222----------------------|



- Chorus:
(Away from me...)


G|-------------------|
D|-------------------|  
A|-----44--66--2222--|  x3
E|--2----------------|


G|---------------------------------|
D|---------------------------------|  
A|-----44--66666666--44444444--2r--|  
E|--2------------------------------|



- Verse:
(Then later on...)


G|--------------------------|
D|--------------------------|  
A|--2222--------4444--6666--|  x3
E|--------2222--------------|


G|----------------------------------|
D|----------------------------------|  
A|--2222--------44444444--22222222--|  
E|--------2222----------------------|



- Chorus:
(Hung up on me...)


G|-------------------|
D|-------------------|  
A|-----44--66--2222--|  x3
E|--2----------------|


G|-----------------------------|
D|-----------------------------|  
A|-----44--66666666--44444444--|  
E|--2--------------------------|



- Bridge:

G|-----------------------------------------------|
D|----8---8--8---6---6--6---4---4--4---6---6--6--|  
A|--66--66--6--44--44--4--22--22--2--44--44--4---|  x3
E|-----------------------------------------------|


G|----------------------------------------------|
D|----8---8--8---6---6--6---4---4--4--66666666--|  
A|--66--66--6--44--44--4--22--22--2---44444444--|  
E|----------------------------------------------|



- Chorus:
(Away from me...)


G|-------------------|
D|-------------------|  
A|-----44--66--2222--|  x3
E|--2----------------|


G|-----------------------------|
D|-----------------------------|  
A|-----44--66666666--44444444--|  
E|--2--------------------------|


(Hung up on me...)


G|-------------------|
D|-------------------|  
A|-----44--66--2222--|  x3
E|--2----------------|


G|-----------------------------|
D|-----------------------------|  
A|-----44--66666666--44444444--|  
E|--2--------------------------|


G|-------------------|
D|-------------------|  
A|-----44--66--2222--|  x3
E|--2----------------|


G|---------------------------------|
D|-----------------------------4r--|  
A|-----44--66666666--44444444--2r--|  
E|--2------------------------------|



-----------------------------------------------------------------------------
                             6. Dysentery Gary
-----------------------------------------------------------------------------

( ) = Optional note
 r  = Let it Ring
 *  = 10's, 12's and 14's. Not 1-0, 1-2 and 1-4.



- Intro :

G|-------------------------------------------|
D|-------------------------------------------|
A|------------------(0h5r)-----(55)----------| 
E|-------------------------------------------|


G|---------------------------------------|
D|---------------------------------------|
A|--5555555555555555--10101010*--000000--|  x2   *10's, not 1-0
E|---------------------------------------|



- Verse 1:
(Got a lotta heart ache...)

G|------------------------------------------------------|
D|--------------------------5-----5----7-555-7-555-7-5--|
A|--5-----5r----5-----5r------000-----------------------|  
E|----555---------555-----------------------------------|


('Cause I love your little motions...)

G|-----------------------------------------------------------------------|
D|--------------------------------------5-----55555555--7-555-7-555-7-5--|
A|--5-----5555-5h7-5h7--5-----55555577----000----------------------------|  
E|----555-----------------555--------------------------------------------|



- Pre-Chorus:

G|----------------------------------------------------|
D|-------------------------55-------------------------|
A|--5555555555555555-99-77--------------000000-22-44--|  
E|----------------------------033333333---------------|



- Chorus:
(He's a player...)

G|-------------------------------------------------|
D|-------------------------55----------------------|
A|--5555555555555555-99-77---------------00000000--|  
E|----------------------------033333333------------|


(Life just sucks...)

G|--------------------------------------------------------|
D|--------------------------------------------------------|
A|--101010101010*-99-101010*--121212121212*-1414*-1212*\--| *10's, 12's and 14's. Not 1-0, 1-2 and 1-4.
E|--------------------------------------------------------|


(I'm giving up...)

G|--------------------------------------------------|
D|--------------------------------------------------|
A|--55555555-77-----------------------000000-22-44--| 
E|--------------77777777-55-33333333----------------|



- Post-Chorus:

G|-----------------------------------------|
D|-----------------------------------------|
A|--5r----------------10101010*--00000000--|     *10's, not 1-0
E|-----------------------------------------|


G|---------------------------------------|
D|---------------------------------------|
A|--5555555555555555--10101010*--000000--|  x2   *10's, not 1-0
E|---------------------------------------|



- Verse 2:
(So all you little ladies...)

G|------------------------------------------------------|
D|--------------------------5-----5----7-555-7-555-7-5--|
A|--5-----5r----5-----5r------000-----------------------|  
E|----555---------555-----------------------------------|


(Got a lotta heart ache...)

G|-----------------------------------------------------------------------|
D|--------------------------------------5-----55555555--7-555-7-555-7-5--|
A|--5-----5555-5h7-5h7--5-----55555577----000----------------------------|  
E|----555-----------------555--------------------------------------------|




- Pre-Chorus:

G|---------------------------------------------------|
D|-------------------------55------------------------|
A|--5555555555555555-99-77-------------000000-22-44--|  
E|---------------------------33333333----------------|


(Ease away the problems and the pain...)

G|-----------------------------------------------------|
D|-------------------------55--------------------------|
A|--5555555555555555-99-77---------------000000-22-44--|  
E|----------------------------033333333----------------|



- Chorus:
(He's a player...)

G|-------------------------------------------------|
D|-------------------------55----------------------|
A|--5555555555555555-99-77---------------00000000--|  
E|----------------------------033333333------------|


(Life just sucks...)

G|--------------------------------------------------------|
D|--------------------------------------------------------|
A|--101010101010*-99-101010*--121212121212*-1414*-1212*\--| *10's, 12's and 14's. Not 1-0, 1-2 and 1-4.
E|--------------------------------------------------------|


(I'm giving up...)

G|--------------------------------------------------|
D|--------------------------------------------------|
A|--55555555-77-----------------------000000-22-44--| 
E|--------------77777777-55-33333333----------------|



- Interlude:

G|--------------------|
D|--0h5-4r----4---0r--|
A|--------------0-----|  x3
E|--------------------|


G|----------------|
D|--0h5-4r--------|
A|------------5r--|  
E|------------3r--|



- Outro:
(Fuck this place...)

G|--------------------------------------------------------|
D|--------------------------------------------------------|
A|--101010101010*-99-101010*--121212121212*-1414*-1212*\--| *10's, 12's and 14's. Not 1-0, 1-2 and 1-4.
E|--------------------------------------------------------|


(I hate you all...)

G|--------------------------------------------------|
D|--------------------------------------------------|
A|--55555555-77-----------------------000000-22-44--| 
E|--------------77777777-55-33333333----------------|



G|------------|
D|------------|
A|--5r-----5--| 
E|------------|



-----------------------------------------------------------------------------
                             7. Adam's Song
-----------------------------------------------------------------------------

r = Let it Ring



- Intro: No Bass



- Verse:
(I never thought...)

G|----------------|----------------|----------------|----------------|
D|----------------|----------------|----------------|----------------|
A|3-3-3-3-3-3-3-3-|----------------|0-0-0-0-0-0-0-0-|----------------|  x4
E|----------------|1-1-1-1-1-1-1-1-|----------------|1-1-1-1-1-1-1-1-|



- Pre-Chorus:

G|----------------|----------------|----------------|------------------|
D|-5r-------------|----------------|----------------|------------------|
A|-3r-------------|----------------|----------------|------------------|
E|----------------|----------------|----------------|------------------|
                                                           

G|----------------|----------------|----------------|----------------|
D|----------------|----------------|----------------|----------------|
A|3-3-3-3-3-3-3-3-|5-5-5-5-5-5-5-5-|0-0-0-0-0-0-0-0-|----------------|
E|----------------|----------------|----------------|1-1-1-1-1-1-1-1-|



- Chorus:
(I never conquered...)

G|----------------|----------------|----------------|----------------|
D|----------------|----------------|----------------|----------------|
A|3-3-3-3-3-3-3-3-|5-5-5-5-5-5-5-5-|0-0-0-0-0-0-0-0-|----------------|
E|----------------|----------------|----------------|1-1-1-1-1-1-1-1-|


(Days when I still...)

G|----------------|----------------|----------------|----------------|
D|----------------|----------------|----------------|----------------|
A|3-3-3-3-3-3-3-3-|5-5-5-5-5-5-5-5-|0-0-0-0-0-0-0-0-|8-8-8-8-8-8-8-8-|
E|----------------|----------------|----------------|----------------|


(Outside this world...)

G|----------------|----------------|----------------|------------------------|
D|5-5-5-5-5-5-5-5-|7-7-7-7-7-7-7-7-|----------------|10-10-10-10-10-10-10-10-| 
A|3-3-3-3-3-3-3-3-|5-5-5-5-5-5-5-5-|7-7-7-7-7-7-7-7-|8--8--8--8--8--8--8--8--|  x2
E|----------------|----------------|5-5-5-5-5-5-5-5-|------------------------|



- Post-Chorus: No Bass



- Verse:
(I never thought...)

G|----------------|----------------|----------------|----------------|
D|----------------|----------------|----------------|----------------|
A|3-3-3-3-3-3-3-3-|----------------|0-0-0-0-0-0-0-0-|----------------|  x4
E|----------------|1-1-1-1-1-1-1-1-|----------------|1-1-1-1-1-1-1-1-|



- Pre-Chorus:

G|----------------|----------------|----------------|------------------|
D|-5r-------------|----------------|----------------|------------------|
A|-3r-------------|----------------|----------------|------------------|
E|----------------|----------------|----------------|------------------|
                                                           

G|----------------|----------------|----------------|----------------|
D|----------------|----------------|----------------|----------------|
A|3-3-3-3-3-3-3-3-|5-5-5-5-5-5-5-5-|0-0-0-0-0-0-0-0-|----------------|
E|----------------|----------------|----------------|1-1-1-1-1-1-1-1-|



- Chorus:
(I never conquered...)

G|----------------|----------------|----------------|----------------|
D|----------------|----------------|----------------|----------------|
A|3-3-3-3-3-3-3-3-|5-5-5-5-5-5-5-5-|0-0-0-0-0-0-0-0-|----------------|
E|----------------|----------------|----------------|1-1-1-1-1-1-1-1-|


(Days when I still...)

G|----------------|----------------|----------------|----------------|
D|----------------|----------------|----------------|----------------|
A|3-3-3-3-3-3-3-3-|5-5-5-5-5-5-5-5-|0-0-0-0-0-0-0-0-|8-8-8-8-8-8-8-8-|
E|----------------|----------------|----------------|----------------|


(Outside this world...)

G|----------------|----------------|----------------|------------------------|
D|5-5-5-5-5-5-5-5-|7-7-7-7-7-7-7-7-|----------------|10-10-10-10-10-10-10-10-| 
A|3-3-3-3-3-3-3-3-|5-5-5-5-5-5-5-5-|7-7-7-7-7-7-7-7-|8--8--8--8--8--8--8--8--|  x2
E|----------------|----------------|5-5-5-5-5-5-5-5-|------------------------|



- Interlude:


G|----------------|----5-----5---5-|----7-----7---7-|----5-----5---5-|
D|----5-----5---5-|3-3---3-3---3---|5-5---5-5---5---|3-3---3-3---3---|
A|3-3---3-3---3---|----------------|----------------|----------------|
E|----------------|----------------|----------------|----------------|

G|----------------|----5-----5---5-|----7-----7---7-|----9-------5---|
D|----5-----5---5-|3-3---3-3---3---|5-5---5-5---5---|7-7-----3-3-----|
A|3-3---3-3---3---|----------------|----------------|----------------|
E|----------------|----------------|----------------|----------------|

G|----------------|----5-----5---5-|----7-----7---7-|----5-----5---5-|
D|----5-----5---5-|3-3---3-3---3---|5-5---5-5---5---|3-3---3-3---3---|
A|3-3---3-3---3---|----------------|----------------|----------------|
E|----------------|----------------|----------------|----------------|

G|----------------|----5-----5---5-|----7-----7---7-|----9-------5---|
D|----5-----5---5-|3-3---3-3---3---|5-5---5-5---5---|7-7-----3-3-----|
A|3-3---3-3---3---|----------------|----------------|----------------|
E|----------------|----------------|----------------|----------------|

G|----------------|----------------|----------------|----------------|
D|----------------|3-3-3-3-3-3-3-3-|----------------|3-3-3-3-3-3-3-3-|
A|3-3-3-3-3-3-3-3-|----------------|3-3-3-3-3-3-3-3-|----------------|
E|----------------|----------------|----------------|----------------|

G|----------------|----------------|----------------|----------------|
D|----------------|3-3-3-3-3-3-3-3-|5-5-5-5-5-5-5-5-|7-7-7-7-3-3-3-3-|
A|3-3-3-3-3-3-3-3-|----------------|----------------|----------------|
E|----------------|----------------|----------------|----------------|



- Chorus:
(I never conquered...)

G|----------------|----------------|----------------|----------------|
D|----------------|----------------|----------------|----------------|
A|3-3-3-3-3-3-3-3-|5-5-5-5-5-5-5-5-|0-0-0-0-0-0-0-0-|----------------|
E|----------------|----------------|----------------|1-1-1-1-1-1-1-1-|


(Days when I still...)

G|----------------|----------------|----------------|----------------|
D|----------------|----------------|----------------|----------------|
A|3-3-3-3-3-3-3-3-|5-5-5-5-5-5-5-5-|0-0-0-0-0-0-0-0-|8-8-8-8-8-8-8-8-|
E|----------------|----------------|----------------|----------------|


(Outside this world...)

G|----------------|----------------|----------------|------------------------|
D|5-5-5-5-5-5-5-5-|7-7-7-7-7-7-7-7-|----------------|10-10-10-10-10-10-10-10-| 
A|3-3-3-3-3-3-3-3-|5-5-5-5-5-5-5-5-|7-7-7-7-7-7-7-7-|8--8--8--8--8--8--8--8--|  x2
E|----------------|----------------|5-5-5-5-5-5-5-5-|------------------------|



-End Note:

G|-----|
D|-5r--|
A|-3r--|
E|-----|


__________
Tabbed by: JimBlenderBR



-----------------------------------------------------------------------------
                             8. All the Small Things
-----------------------------------------------------------------------------

 r  = Let it Ring



- Intro:

G|-----|
D|-----|
A|-----|
E|-3-1-|


G|-----------------|-----------------|-----------------|-----------------|
D|-----------------|-----------------|-----------------|-----------------|
A|-3-3-3-3-3-3-3-3-|-3-3-3-3-3-3-3-5-|-----------------|-----------------|  x2
E|-----------------|-----------------|-3-3-3-3-3-3-3-3-|-3-x-x-x-x-1-1-1-| 



- Verse:
(All the small things...)

G|-----------------|-----------------|-----------------|-----------------|
D|-----------------|-----------------|-----------------|-----------------|
A|-3-3-3-3-3-3-3-3-|-----------------|-----------------|-----------------|  x4
E|-----------------|-3-3-3-3-3-3-3-3-|-1-1-1-1-1-1-1-1-|-3-3-3-3-3-3-3-3-|



- Pre-Chorus:
(Say it ain't so...)

G|-----------------|-----------------|-------------------------|-----------------|
D|-----------------|-----------------|-------------------------|-----------------|
A|-3-3-3-3-3-3-3-3-|-3-3-3-3-3-3-3-3-|-10-10-10-10-10-10-10-10-|-8-8-8-8-8-8-8-8-|
E|-----------------|-----------------|-------------------------|-----------------|



- Chorus:
(Na, na, na, na...)

G|-----------------|-----------------|-------------------------|-----------------|
D|-----------------|-----------------|-------------------------|-----------------|
A|-3-3-3-3-3-3-3-3-|-3-3-3-3-3-3-3-3-|-10-10-10-10-10-10-10-10-|-8-8-8-8-8-8-8-8-|  x2
E|-----------------|-----------------|-------------------------|-----------------|



- Post-Chorus:

G|-----------------|-----------------|-----------------|-----------------|
D|-----------------|-----------------|-----------------|-----------------|
A|-3-3-3-3-3-3-3-3-|-3-3-3-3-3-3-3-5-|-----------------|-----------------|  x2
E|-----------------|-----------------|-3-3-3-3-3-3-3-3-|-3-x-x-x-x-1-1-1-|



- Verse:
(late night...)

G|-----------------|-----------------|-----------------|-----------------|
D|-----------------|-----------------|-----------------|-----------------|
A|-3-3-3-3-3-3-3-3-|-----------------|-----------------|-----------------|
E|-----------------|-3-3-3-3-3-3-3-3-|-1-1-1-1-1-1-1-1-|-3-3-3-3-3-3-3-3-|  x2



- Pre-Chorus:
(Say it ain't so...)

G|-----------------|-----------------|-------------------------|-----------------|
D|-----------------|-----------------|-------------------------|-----------------|
A|-3-3-3-3-3-3-3-3-|-3-3-3-3-3-3-3-3-|-10-10-10-10-10-10-10-10-|-8-8-8-8-8-8-8-8-|
E|-----------------|-----------------|-------------------------|-----------------|



- Chorus:
(Na, na, na, na...)

G|-----------------|-----------------|-------------------------|-----------------|
D|-----------------|-----------------|-------------------------|-----------------|
A|-3-3-3-3-3-3-3-3-|-3-3-3-3-3-3-3-3-|-10-10-10-10-10-10-10-10-|-8-8-8-8-8-8-8-8-|  x2
E|-----------------|-----------------|-------------------------|-----------------|



- Interlude:

G:|-------------------|-------------------|-------------------|-------------------|
D:|-------------------|-------------------|-------------------|-------------------|
A:|-3r----------------|-------------------|-8r----------------|-10r---------------|  x3
E:|-------------------|-------------------|-------------------|-------------------|


G:|-----------------|-----------------|-----------------|-------------------------|
D:|-----------------|-----------------|-----------------|-------------------------|
A:|-3-3-3-3-3-3-3-3-|-3-3-3-3-3-3-3-3-|-8-8-8-8-8-8-8-8-|-10-10-10-10-10-10-10-10-|
E:|-----------------|-----------------|-----------------|-------------------------|



- Chorus:
(Say it ain't so...)

G|-----------------|-----------------|-------------------------|-----------------|
D|-----------------|-----------------|-------------------------|-----------------|
A|-3-3-3-3-3-3-3-3-|-3-3-3-3-3-3-3-3-|-10-10-10-10-10-10-10-10-|-8-8-8-8-8-8-8-8-|  x2
E|-----------------|-----------------|-------------------------|-----------------|


(Na, na, na, na...)

G|-----------------|-----------------|-------------------------|-----------------|
D|-----------------|-----------------|-------------------------|-----------------|
A|-3-3-3-3-3-3-3-3-|-3-3-3-3-3-3-3-3-|-10-10-10-10-10-10-10-10-|-x-x-x-8-x-x-x-8-|  x2
E|-----------------|-----------------|-------------------------|-----------------|


(Keep your head still...)

G|-----------------|-----------------|-------------------------|-----------------|
D|-----------------|-----------------|-------------------------|-----------------|
A|-3-3-3-3-3-3-3-3-|-3-3-3-3-3-3-3-3-|-10-10-10-10-10-10-10-10-|-x-x-x-8-x-x-x-8-|  
E|-----------------|-----------------|-------------------------|-----------------|


G|-----------------|-----------------|-------------------------|-----------------|
D|-----------------|-----------------|-------------------------|-----------------|
A|-x-x-x-8-x-x-x-8-|-3-r-------------|-------------------------|-----------------|
E|-----------------|-----------------|-------------------------|-----------------|



-----------------------------------------------------------------------------
                             9. The Party Song
-----------------------------------------------------------------------------

r = Let it Ring



[Verse]
(Do you want to...)

G|------------------------------------------|
D|------------------------------------------|
A|--22222222--77777777--44444444--77777777--|  x4
E|------------------------------------------|

G|-------------------------------------------------|
D|-------------------------------------------------|
A|--22222222--77777777--44444444--77--99--2222222--|  
E|-------------------------------------------------|


(And then in the backyard...)

G|------------------------------------------|
D|------------------------------------------|
A|--22222222--77777777--44444444--77777777--|  x4
E|------------------------------------------|

G|-------------------------------------------------|
D|-------------------------------------------------|
A|--22222222--77777777--44444444--77--99--2222222--|  
E|-------------------------------------------------|



[Interlude]
(And then I saw...)

G|--------------------------------------|
D|--------------------------------------|
A|--2--7h-6--2--7h-6--2--7h-6--2--7h-6--|
E|--------------------------------------|



[Pre-Chorus]
(She might be the one...)

G|------------------------------------------|
D|------------------------------------------|
A|--22222222--44444444--77777777--99999999--|  
E|------------------------------------------|

G|------------------------------------|
D|------------------------------------|
A|--22222222--44444444--77777777--9r--|  
E|------------------------------------|



[Chorus]
(na na na...)

G|------------------------------------------|
D|------------------------------------------|
A|--22222222--77777777--44444444--77777777--|  x4
E|------------------------------------------|



[Verse]
(I couldn't believe...)

G|------------------------------------------|
D|------------------------------------------|
A|--22222222--77777777--44444444--77777777--|  x4
E|------------------------------------------|

G|-------------------------------------------------|
D|-------------------------------------------------|
A|--22222222--77777777--44444444--77--99--2222222--|  
E|-------------------------------------------------|


[Interlude]
(So when you see...)

G|--------------------------------------|
D|--------------------------------------|
A|--2--7h-6--2--7h-6--2--7h-6--2--7h-6--|
E|--------------------------------------|



[Pre-Chorus]
(This girl's not the one...)

G|------------------------------------------|
D|------------------------------------------|
A|--22222222--44444444--77777777--99999999--|  
E|------------------------------------------|

G|------------------------------------|
D|------------------------------------|
A|--22222222--44444444--77777777--9r--|  
E|------------------------------------|



[Chorus]
(na na na...)

G|------------------------------------------|
D|------------------------------------------|
A|--22222222--77777777--44444444--77777777--|  x6
E|------------------------------------------|


[End note]

G|------|
D|------|
A|--2r--|  
E|------|



-----------------------------------------------------------------------------
                                  10. Mutt
-----------------------------------------------------------------------------

[Intro]

G|----9--9--9--9--9--9--9--9----------------------------|
D|--77-77-77-77-77-77-77-77-----7--7--7--7--7--7--7--7--|
A|----------------------------55-55-55-55-55-55-55-55---|
E|------------------------------------------------------|

G|------------------------------------------------------------------------------|
D|------------------------------------------------------------------4444--2222--|
A|--000000000000000000000000--2222--4444--555555555555555555555555--------------|
E|------------------------------------------------------------------------------|

G|------------------------------------------------------------------------------|
D|----------------------------------------------------------22222222--00000000--|
A|--000000000000000000000000--2222--4444--5555555555555555----------------------|
E|------------------------------------------------------------------------------|



[Verse]

(He pauses shaving...)

G|-----------------------------------|
D|----------------44444444--22222222-|
A|--00000000-02h4--------------------| x2
E|-----------------------------------|



[Chorus]

(He's not that old...)

G|-----------------------------------|
D|----------------44444444--22222222-|
A|--00000000-02h4--------------------| 
E|-----------------------------------|

G|------------------------------------------------------------------------|
D|----------------44444444--22222222--000000000000000000000000--22222222--|
A|--00000000-02h4---------------------------------------------------------| 
E|------------------------------------------------------------------------|



[Post-Chorus]

G|-------------------------------------|
D|------2h4p2-----2h4p2-----4---7------|
A|--0-0-------0-0--------22----5--4-7--| x2
E|-------------------------------------|



[Verse]

(She's open waiting for more...)

G|-------------------------------------|
D|------2h4p2-----2h4p2-----4---7------|
A|--0-0-------0-0--------22----5--4-7--| x4
E|-------------------------------------|



[Interlude]

G|------------------------------------------------------------------------------|
D|------------------------------------------------------------------4444--2222--|
A|--000000000000000000000000--2222--4444--555555555555555555555555--------------|
E|------------------------------------------------------------------------------|

G|------------------------------------------------------------------------------|
D|----------------------------------------------------------22222222--00000000--|
A|--000000000000000000000000--2222--4444--5555555555555555----------------------|
E|------------------------------------------------------------------------------|



[Verse]

(She smokes a dozen...)

G|-----------------------------------|
D|----------------44444444--22222222-|
A|--00000000-02h4--------------------| x2
E|-----------------------------------|


[Chorus]

(He wants to bone...)

G|-----------------------------------|
D|----------------44444444--22222222-|
A|--00000000-02h4--------------------| 
E|-----------------------------------|

G|------------------------------------------------------------------------|
D|----------------44444444--22222222--000000000000000000000000--22222222--|
A|--00000000-02h4---------------------------------------------------------| 
E|------------------------------------------------------------------------|



[Post-Chorus]

G|-------------------------------------|
D|------2h4p2-----2h4p2-----4---7------|
A|--0-0-------0-0--------22----5--4-7--| x2
E|-------------------------------------|



[Verse]

(She's open waiting for more...)

G|-------------------------------------|
D|------2h4p2-----2h4p2-----4---7------|
A|--0-0-------0-0--------22----5--4-7--| x4
E|-------------------------------------|



[Interlude]

G|---------------------------------------------|
D|---------------------------------------------|
A|--00---------22--55-44--00--------22--55-44--|
E|---------------------------------------------|

G|-------------------------------------|
D|------2h4p2-----2h4p2-----4---7------|
A|--0-0-------0-0--------22----5--4-7--| x2
E|-------------------------------------|



[Verse]

(She's open waiting for more...)

G|-------------------------------------|
D|------2h4p2-----2h4p2-----4---7------|
A|--0-0-------0-0--------22----5--4-7--| x4
E|-------------------------------------|



[Outro]
G|-------------------------------------------|
D|-------------------------------------------|
A|--0--------2--55-44--0--------2--55-44--0--|
E|-------------------------------------------|



-----------------------------------------------------------------------------
                               11. Wendy Clear
-----------------------------------------------------------------------------

r = Let it Ring



[Intro]

G|-------------------------------------------------------------------------------------------|
D|-------------------------------------------------------------------------------------------|
A|-------------------8/3--3333333333333333--8888888888888888--101010101010101010*--88888888--|  *= 10's
E|-------------------------------------------------------------------------------------------|



[Verse]

(Let's take the boat...)

G|--------------------------------------------------------------------|
D|--------------------------------------------------------------------|
A|--3333333333333333------------------------------------333333333333--| 
E|--------------------3--111111111111--555555--1111--3----------------|

G|--------------------------------------------------------------------|
D|--------------------------------------------------------------------|
A|--3333333333333333------------------------------------333333333333--| 
E|--------------------3--111111111111--555555--1111--3----------------|



[Chorus]

(But I'd play with fire to break the ice...)

G|-----------------------------------------|
D|-----------------------------------------|
A|--10101010101010*--888888--333333333333--| x2     *= 10's
E|-----------------------------------------| 

G|----------------------------------------------|
D|----------------------------------------------|
A|--------------333333--------------------------|
E|--5555--1111----------333333--555555--111111--|



[Post-Chorus]

G|---------------------------------------------------------------------|
D|---------------------------------------------------------------------|
A|--3333333333333333--8888888888888888--101010101010101010*--88888888--|  *= 10's
E|---------------------------------------------------------------------|



[Verse]

(The three-date theory...)

G|--------------------------------------------------------------------|
D|--------------------------------------------------------------------|
A|--3333333333333333------------------------------------333333333333--| 
E|--------------------3--111111111111--555555--1111--3----------------|

G|--------------------------------------------------------------------|
D|--------------------------------------------------------------------|
A|--3333333333333333------------------------------------333333333333--| 
E|--------------------3--111111111111--555555--1111--3----------------|



[Chorus]

(But I'd play with fire to break the ice...)

G|-----------------------------------------|
D|-----------------------------------------|
A|--10101010101010*--888888--333333333333--| x2     *= 10's
E|-----------------------------------------| 

G|------------------------------------------------------------|
D|------------------------------------------------------------|
A|--------------333333--------------------------333333333333--|
E|--5555--1111----------333333--555555--111111----------------|



[Bridge]

(I'll be moving on...)

G|-----------------------------------------------|
D|-----------------------------------------------|
A|--00------33------------------333333333333333--|  
E|------11------33--55--111111-------------------|  

G|------------------------------|
D|------------------------------|
A|--00------33------------------|  
E|------11------33--55--111111--| 
 
G|---------------------------------------------------------------------------------------|
D|---------------------------------------------------------------------------------------|
A|--3333333333333333--8888888888888888--101010101010101010*--88888888--3333333333333333--|  *= 10's
E|---------------------------------------------------------------------------------------|



[Chorus]

(But I'd play with fire to break the ice...)

G|-----------------------------------------------------------------------------------------------|
D|-----------------------------------------------------------------------------------------------|
A|-----------------------------------------------------------------------------3333333333333333--|  
E|-----------------------------------------------------------------------------------------------|  



[Outro]

(I wish it didn't have...)

G|------------------------------------|
D|------------------------------------|
A|------------------3333333333333333--| x2
E|--333333--111111--------------------|  

G|----------------|
D|----------------| 
A|--10*--8----3r--|   *= 10's
E|----------------|  



-----------------------------------------------------------------------------
                               12. Anthem
-----------------------------------------------------------------------------

r = Let ir Ring



[Intro part 1]

G|-----------------------|
D|-----------------------|
A|--------NO BASS--------|
E|-----------------------|



[Intro part 2]


(Home show...)

G|----------------------------------------------------------|
D|----------------------------------------------------------|
A|--22222--22222--22222--22222------------------------------|
E|------------------------------00000--22222--00000--22222--|

G|-------------------------------------------------------------|
D|-------------------------------------------------------------|
A|--22222--22222--22222--44446666--77777--99999--77777--99999--|
E|-------------------------------------------------------------|



[Verse]


(But good things come to those who wait...)

G|-----------------------------------------------------------------------------|
D|--------------9-9---------------9-9-11-11---------9-9-------------9-9-11-11--|
A|--11-11-11-11-----11-11-9-9-9-9-----------7-7-7-7-----7-7-9-9-9-9------------|  x4
E|-----------------------------------------------------------------------------|



[Interlude]

G|---------------------------|
D|---------------------------|
A|--22222--22222--22222------|
E|-----------------------0r--|



[Verse]


(White lies...)

G|-----------------------------------------------------------|
D|-----------------------------------------------------------|
A|--222222222222222--4444--6666--77777--99999--77777--99999--|  x2
E|-----------------------------------------------------------|



[Pre-Chorus]


(But good things come to those who wait...)

G|-----------------------------------------------------------------------------|
D|--------------9-9---------------9-9-11-11---------9-9-------------9-9-11-11--|
A|--11-11-11-11-----11-11-9-9-9-9-----------7-7-7-7-----7-7-9-9-9-9------------|  x4
E|-----------------------------------------------------------------------------|



[Chorus]


(You don't belong...)

G|-------------------------------------------------------|
D|-------------------------------------------------------|
A|--2-22222222--------------2-22222222-------------------|
E|--------------0-00000000--------------2-22222222--xxx--|

G|--------------------------------------------------|
D|--------------------------------------------------|
A|--2-22222222--------------2-22222222--------------|
E|--------------0-00000000--------------2-22222222--|



[Post-Chorus]


(I time bomb...)

G|------------------------------------------|
D|----------------------66666666--44444444--|
A|--22222222--77777777----------------------|  
E|------------------------------------------|

G|------------------------------------------|
D|------------------------------------------|
A|--22222222--77777777--99999999--77777777--| 
E|------------------------------------------|

G|--------------------------------------------|
D|--------------------------------------------|
A|--22222222--77777777--99999999--7777--9999--| 
E|--------------------------------------------|



[Bridge/Bass Solo]


G|-----8----8----11----11----8----8----11----11---------------------------------------|
D|--99---99---99----99----99---99---99----99-------9---9---11---11---9---9---11---11--|
A|-----------------------------------------------77--77--99---99---77--77--99---99----| x2
E|------------------------------------------------------------------------------------|



[Pre-Chorus]


(But good things come to those who wait...)

G|-----------------------------------------------------------------------------|
D|--------------9-9---------------9-9-11-11---------9-9-------------9-9-11-11--|
A|--11-11-11-11-----11-11-9-9-9-9-----------7-7-7-7-----7-7-9-9-9-9------------| x4
E|-----------------------------------------------------------------------------|



[Chorus]


(You don't belong...)

G|-------------------------------------------------------|
D|-------------------------------------------------------|
A|--2-22222222--------------2-22222222-------------------|
E|--------------0-00000000--------------2-22222222--xxx--|

G|--------------------------------------------------|
D|--------------------------------------------------|
A|--2-22222222--------------2-22222222--------------|
E|--------------0-00000000--------------2-22222222--|



[Post-Chorus]


(I time bomb...)

G|------------------------------------------|
D|----------------------66666666--44444444--|
A|--22222222--77777777----------------------|  
E|------------------------------------------|

G|------------------------------------------------|
D|----------------------66666666--44444444--------|
A|--22222222--77777777------------------------2r--|  
E|------------------------------------------------|


__________
Tabbed by: JimBlenderBR

            
            
Suggest correction
Creating personal tab
Creating personal tab
You can edit any tab online and save it as your Personal.

You can edit, replace or remove any tab part or add personal notes – all changes will be seen only by you.

Personal tabs can be accessed anytime from any device, even offline.
Learn more »
Give kudos to tab author, rate the tab!
1 2 3 4 5
comments
print report bad tab
guest
You may want to rate the tab now too:
select rating
Wanna post a correction for this tab? Suggest correction