Oops, an error
Loading. Please wait.

Feeling This Tab

version 1
version 1

Video

  • High quality, easy to follow video lesson.
12,515 views 78 this week
11 commentsread comments
1 2 3 4 5
x 14
add to favorites
launch autoscroll
font size
0
reset
how to read this tab
guitar tuner
×
Best way to learn
"Feeling This"
Autoscroll
slow
fast
+/-
esc
set tempo
stop
Author
Blink 182 - Feeling This
Tabbed by TJF (TJF@TJFweb.com)
for Electric Guitar

For more Punk Rock / J-Rock tabs, please visit http://www.TJFweb.com

Intro:
E|--------------------|
B|--------------------|
D|-11/9-99-9-9/13-----|
G|-x--x-xx-x-x-x------|
A|-9-/7-77-7-7/11-----|
E|---------0----------|

Buildup to verse:
E|------------------|
B|------------------|
D|-9-11-13-14-------|
G|-x-x--x--x--------|
A|-7-9--11-12-------|
E|------------------|

Verse:
E|--------------------|
B|--------------------|
D|-11/9-99-9-9/13-----|
G|-x--x-xx-x-x-x------|
A|-9-/7-77-7-7/11-----|
E|---------0----------|
Repeat as many times as necessary

Buildup to chorus:
E|---------------------|
B|---------------------|
D|---------------------|
G|---6-6----44444/999--|
A|-77-7-777-22222/777--|
E|---------------------|
PM ........ ..... ...
Repeat three times but finish on B5 on the third time.

Chorus:
E|------------------|
B|------------------|
D|---4-6-2----------|
G|-2-4-6-2----------|
A|-2-2-4-0----------|
E|-0----------------|
Just play the chorus until it fades out...

NOTE: Actual strumming not shown, but it is easy enough to work out.
Suggest correction
comments
print report bad tab
11 comments total. Showing first comments.
-1 reply
atticusblinkste 150 Oct 08, 2003 08:00 PM

The song isnt even called feeling this jackass

0 reply
sono23 10 Oct 08, 2003 08:00 PM

well, it was called, \"Action\" a while back when it was first released. Now they changed it, its currently and is called for their album, \"Feelin\' This\"

0 reply
TJF 260 Oct 10, 2003 08:00 PM

Yeah good work ***. On the official album this song IS called FEELING THIS. Action is the OLD version on the new Madden Game.

guest
You may want to rate the tab now too:
select rating
Wanna post a correction for this tab? Suggest correction