Oops, an error
Loading. Please wait.
302 views 3 this week
2 commentsread comments
1 2 3 4 5
x 3
add to favorites
×
Save as Personal and add changes to this tab that will be seen only by you. Learn more ›
×
You can save this tab as Personal to edit and correct it or add notes. All changes will be seen only by you. Learn more »
launch autoscroll
font size
0
reset
guitar tuner
edit
Autoscroll
slow
fast
+/-
esc
set tempo
stop
Difficulty
intermediate
Feeling this – Blink182

Intro: Drums/Guitar

Verse1:
G|--------------------------------------------------------------|
D|--------9----9---9----976---------6---6----6----424-----------|
A|-----77---77---7---77-----------44---44---4---42--------------|
E|--------------------------------------------------------------|

G|--------------------------------------------------------------|
D|--------9----9---9----976---------6----6---6----222-----------|
A|-----77---77---7---77-----------44---44---4---22--------------|x4 
E|--------------------------------------------------------------| 

Chorus:
G|-----------------------------------|
D|-----------4--4-4---6--6-6---2--2-2|
A|--2--2-2-22-22-2—-44-44-4—-00-00--0|x2
E|00-00-0----------------------------|

Break: Guitar

Verse2:
G|--------------------------------------------------------------|
D|--------9----9---9----976---------6---6----6----424-----------|
A|-----77---77---7---77-----------44---44---4---42--------------|
E|--------------------------------------------------------------|

G|--------------------------------------------------------------|
D|--------9----9---9----976---------6----6---6----222-----------|
A|-----77---77---7---77-----------44---44---4---22--------------|x3 
E|--------------------------------------------------------------| 

Chorus:
G|-----------------------------------|
D|-----------4--4-4---6--6-6---2--2-2|
A|--2--2-2-22-22-2—-44-44-4—-00-00--0|x2
E|00-00-0----------------------------| (---0---| before Mark starts singing) 

Bridge: Vocals + Drums

Bridge ending:
G|-----------------------------------|
D|-----------------------------------|
A|77777777---------------------------|x1
E|---------77777777-99999999-55555555| 

G|-----------------------------------|
D|-----------------------9-----------|
A|77777777--------------7-75---------|
E|---------77777777-9979-----5-------|x1

Outro:
G|--------------------------------------------------------------|
D|--------9----9---9----976---------6---6----6----424-----------|
A|-----77---77---7---77-----------44---44---4---42--------------|
E|--------------------------------------------------------------|

G|--------------------------------------------------------------|
D|--------9----9---9----976---------6----6---6----222-----------|
A|-----77---77---7---77-----------44---44---4---22--------------|x9? More or less 
E|--------------------------------------------------------------| 

G|------------------------------------------|
D|------------------------------------------|
A|7-7-------------------7-7-----------------|
E|----777-7-999-9-555-5-----777-7-999-9-555-|

please correct if you find some faults.
I hope you will not.^^
Enjoy :) DG
Suggest correction
Creating personal tab
Creating personal tab
You can edit any tab online and save it as your Personal.

You can edit, replace or remove any tab part or add personal notes – all changes will be seen only by you.

Personal tabs can be accessed anytime from any device, even offline.
Learn more »
Give kudos to tab author, rate the tab!
1 2 3 4 5
comments
print report bad tab
2 comments total.
0 reply
Thero35 93 Apr 29, 2015 12:31 PM

Lack of accuracy. Clearly wrong. The Verse and bridge are very close. But the chorus is completely wrong. And the Outro is completely wrong too.

0 reply
RobMcdonald 73 May 01, 2016 10:20 PM

Inaccurate and too simple. It's a lot more of a complex song than you'd think. The bass work is drowned out a lot by the guitar and drums. There are a lot of complex picking techniques hoppus uses and notes missed in this tab. A lot of the layout and notes in this tab are just plain incorrect.

guest
Wanna post a correction for this tab? Suggest correction