Oops, an error
Loading. Please wait.
434 views 1 this week
no commentswrite comment
1 2 3 4 5
2 more votes to show rating
add to favorites
×
Save as Personal and add changes to this tab that will be seen only by you. Learn more ›
×
You can save this tab as Personal to edit and correct it or add notes. All changes will be seen only by you. Learn more »
launch autoscroll
font size
0
reset
guitar tuner
edit
Autoscroll
slow
fast
+/-
esc
set tempo
stop
Author
Tabbed by: JimBlenderBR



** Mark play this way live in almost every show. 


  -  You can see some to get the time here: https://www.youtube.com/watch?v=-yq4MVsoOOE 
                                            https://www.youtube.com/watch?v=wDuI2-UWCQE
                                            https://www.youtube.com/watch?v=SheOErDqDTs
  

*** Soon I will upload the album version that is slightly different



Enjoy!



- Intro : No bass



- Verse 1
(I got no regret right now (I’m feeling this)....)

|--------------------------------------------------|
|----9---9--9-----4---4---4----6---6--6-----4---2--|
|--77--77--7----22--22--2----44--44--4----22--00---|  4x
|--------------------------------------------------|



- Chorus 
(Fate fell short this time....)
|-------------------------------------|
|-------------------------------------|
|---------222222--444444--000000------| 2x
|-000000------------------------------|




- Verse 2 
(Where do we go from here...) 


[No bass]


(Smiling from ear to ear (I’m feeling this)...)
|--------------------------------------------------|
|----9---9--9-----4---4---4----6---6--6-----4---2--|
|--77--77--7----22--22--2----44--44--4----22--00---|  3x
|--------------------------------------------------|



- Chorus 
(Fate fell short this time....)
|-------------------------------------|
|-------------------------------------|
|---------222222--444444--000000------| 2x
|-000000------------------------------|



- Bridge:
(This place was never the same again...) [No bass]


(Look to the past....)
|-----------------------------------|     |
|-222222----------------------------|     |
|---------2222222--4444444--000000--| 1x  | 
|-----------------------------------|     | 
                                          | This part is optional. In some shows is played, and in others, don't
|-----------------------------------|     |
|-222222----------------------------|     |
|---------2222222--4444444--0r*-----| 1x  |
|-----------------------------------|     |
*r = let ring



- Chorus
(Fate fell short this time...)
|-----------------------------------|
|-----------------------------------|
|----------222222---444444--000000--| 8x
|-000000----------------------------|


__________
Hope you liked!

Tabbed by: JimBlenderBR
Suggest correction
Creating personal tab
Creating personal tab
You can edit any tab online and save it as your Personal.

You can edit, replace or remove any tab part or add personal notes – all changes will be seen only by you.

Personal tabs can be accessed anytime from any device, even offline.
Learn more »
Give kudos to tab author, rate the tab!
1 2 3 4 5
comments
print report bad tab
guest
You may want to rate the tab now too:
select rating
Wanna post a correction for this tab? Suggest correction