Oops, an error
Loading. Please wait.
69,955 views 30 this week
15 commentsread comments
1 2 3 4 5
x 53
add to favorites
×
Save as Personal and add changes to this tab that will be seen only by you. Learn more ›
×
You can save this tab as Personal to edit and correct it or add notes. All changes will be seen only by you. Learn more »
launch autoscroll
font size
0
reset
guitar tuner
edit
Autoscroll
slow
fast
+/-
esc
set tempo
stop
Author
Unregistered
[Verse]
G|-----4---4---------1----------------------1------|  
D|--22---2-----4-------2------6---6----2------2----|  (4x)
A|-----------2---22--------44---4----0---00--------|
E|-------------------------------------------------|
        (the rhythm's almost like the guitar)

G|-------------------------------------------------|
D|-------------------------------------------------|   (2x)
A|-----------22222222-44444444-00000000------------|
E|--00000000---------------------------------------|
                (wait a few moments here)

[Verse]
G|-----4---4---------1----------------------1------|  
D|--22---2-----4-------2------6---6----2------2----|  (4x)
A|-----------2---22--------44---4----0---00--------|
E|-------------------------------------------------|
        (the rhythm's almost like the guitar)

G|-------------------------------------------------|
D|-------------------------------------------------|   (2x)
A|-----------22222222-44444444-00000000------------|
E|--00000000---------------------------------------|
                (wait a few moments here)
 
 (wait til the bridge starts, then)
G|--------|                                  
D|--------|     
A|--------|                                  
E|---12~--|                                  
 
            (look in the past we can...)

G|------------------------------------------------|
D|--22222222--------------------------------------|  (2x)
A|-----------22222222-44444444-00000000-----------| (2nd time,last note 1 beat)
E|------------------------------------------------|

G|------------------------------------------------|
D|------------------------------------------------|  (2x)
A|-----------22222222-44444444-00000000-----------|
E|--00000000--------------------------------------|

G|------------------------------------------------|
D|--22222222--------------------------------------|  (2x)
A|-----------22222222-44444444-00000000-----------|
E|------------------------------------------------|


************************************

| ~  Vibrato

************************************
Suggest correction
Creating personal tab
Creating personal tab
You can edit any tab online and save it as your Personal.

You can edit, replace or remove any tab part or add personal notes – all changes will be seen only by you.

Personal tabs can be accessed anytime from any device, even offline.
Learn more »
comments
print report bad tab
15 comments total. Showing first comments.
0 reply
tiftcte 595 Feb 11, 2004 07:00 PM

its look to the past i think

0 reply
reed 40 Jul 23, 2004 08:00 PM

Allright! At last a semi-ok tab! w00t. Whoever gave this 1 star is a fag.

+1 reply
Punken monkey 10 Dec 18, 2004 07:00 PM

Finally! yeh this is one of the only good feeling this tabs! All the others suck!

guest
Wanna post a correction for this tab? Suggest correction