Oops, an error
Loading. Please wait.
We have an official Feeling This tab made by UG professional guitarists. Check out the tab »
×
111,562 views 48 this week
29 commentsread comments
1 2 3 4 5
x 78
add to favorites
×
Save as Personal and add changes to this tab that will be seen only by you. Learn more ›
×
You can save this tab as Personal to edit and correct it or add notes. All changes will be seen only by you. Learn more »
launch autoscroll
font size
0
reset
how to read this tab
guitar tuner
edit
Autoscroll
slow
fast
+/-
esc
set tempo
stop
Artist: Blink 182
Tittle: Feeling This
Album: Untitled
Guitarist: Tom Delonge
Tabber: F3ND3R
Email: arcadeboi@hotmail.com

I'm sick of not getting the most accurate tabs for this song, and so they leave me
no choice but to make my own. I tabbed according to what they played live on TRL,
so it is at least 95% accurate. Feel free to email me if you think there's
something wrong with my tabs. I welcome feedbacks, good or bad. 
Anyway, this is my 1st tab. Rate it honestly and enjoy playing!

-Standard Tuning
-Capo at 2nd or 3rd fret

/ - slide up
. - palm mute

(*Drums intro*)

Intro:

e|----------------------------|
B|----------------------------|
G|--11--999-----------9/--13--|
D|--11--999-----0-----9/--13--|
A|--9---777-----0-----7/--11--|
E|--------------0-------------| (x2) (at 11, don't strum, juz pull from 7)

Verse1:

e|----------------------------|
B|----------------------------|
G|--11--999-----------9/--13--|
D|--11--999-----0-----9/--13--|
A|--9---777-----0-----7/--11--|
E|--------------0-------------| (x8) (at 11, don't strum, juz pull from 7)
       

Chorus1:

e|----------------|
B|----------------|
G|----------------|
D|---7--------7---|
A|---7--------7---|
E|---0--------0---|

    Fate..     Place..

Pre-verse2:

e|--------------------------------|
B|--------------------------------|
G|-9--9999--9/-11--11-11-11-11----|
D|-9--9999--9/-11--11-11-11-11----|
A|-7--7777--7/-9---9--9--9--9-----|
E|--------------------------------|
                

e|----------------------------------------------|
B|----------------------------------------------|
G|-11/-13--13-13-13-13-13---13/-14--14-14-14-14-|
D|-11/-13--13-13-13-13-13---13/-14--14-14-14-14-|
A|-9-/-11--11-11-11-11-11---11/-12--12-12-12-12-|
E|----------------------------------------------|  
                              

Verse2:

e|--------------------------------------|
B|--------------------------------------|
G|--11--999-----------9/--13------------|
D|--11--999-----0-----9/--13------------|
A|--9---777-----0-----7/--11------------|
E|--------------0-----------------------| (x8)(at 11, don't strum, juz pull from 7)


2nd Chorus
e|----------------|
B|----------------|
G|----------------|
D|---7--------7---|
A|---7--------7---|
E|---0--------0---|

    Fate..     Place..

3rd Chrous:
(drums only)

Bridge:

e|-------------------------------------------------------------------------|
B|-------------------------------------------------------------------------|
G|-9-9-9-9-9-9-9-9---------------------------------------------------------|
D|-9-9-9-9-9-9-9-9-9-9-9-9-9-9-9-9-11-11-11-11-11-11-11-11-7-7-7-7-7-7-7-7-|
A|-7-7-7-7-7-7-7-7-9-9-9-9-9-9-9-9-11-11-11-11-11-11-11-11-7-7-7-7-7-7-7-7-| 
E|-----------------7-7-7-7-7-7-7-7-9--9--9--9--9--9--9--9--5-5-5-5-5-5-5-5-| (x2) (Palm Mute)
   . . . . . . . . . . . . . . . . . . . . . . . . . . . . . . . . . . . . 
   Look to the past...

The rest of the song:

e|-------------------------------------------------------------------------|
B|-------------------------------------------------------------------------|
G|-9-9-9-9-9-9-9-9---------------------------------------------------------|
D|-9-9-9-9-9-9-9-9-9-9-9-9-9-9-9-9-11-11-11-11-11-11-11-11-7-7-7-7-7-7-7-7-|
A|-7-7-7-7-7-7-7-7-9-9-9-9-9-9-9-9-11-11-11-11-11-11-11-11-7-7-7-7-7-7-7-7-| 
E|-----------------7-7-7-7-7-7-7-7-9--9--9--9--9--9--9--9--5-5-5-5-5-5-5-5-| 

THAT's it!
Go practice, n you'll be perfect!
Suggest correction
Creating personal tab
Creating personal tab
You can edit any tab online and save it as your Personal.

You can edit, replace or remove any tab part or add personal notes – all changes will be seen only by you.

Personal tabs can be accessed anytime from any device, even offline.
Learn more »
comments
print report bad tab
29 comments total. Showing first comments.
+4 reply
timkicksass182 10 May 12, 2004 08:00 PM

Tuning:Drop D with a capo on the second fret(all notes relative to capo)
this is straight out of the tab book, id put it in by itself but they dont accept blink tabs anymore so...

intro
e|------------------------------------------------------------------|
B|------------------------------------------------------------------|
G|-----9\7-7-7----7-------7--7/11-----------------------------------|
D|----------------------------------0-------------------------------|
A|-----7\5-5-5----5-------5--5/9----0-------------------------------|
D|-------------------0----------------------------------------------|


the palm-muting actually has two guitars...

Palm-muting part I
Guitar 1:look to the past...i can breath
e|------------------------------------------------------------------|
B|------------------------------------------------------------------|
G|------------------------------------------------------------------|
D|------------------------------------------------------------------|
A|--5-5-9-5-5-5--0-5-5-5-5-7-7-7--5-5-9-5-9-5-5-5-------------------|
D|--0-0---0-0-0-----------------------------------------------------|

Guitar 2: (played at the same time as guitar 1)
e|------------------------------------------------------------------|
B|------------------------------------------------------------------|
G|------------------------------------------------------------------|
D|------------------------------------------------------------------|
A|--5-5-5-5-5-5--0-0-0-0-0-0-0-0--2-2-2-2-2-2-2-2-------------------|
D|--0-0-0-0-0-0-----------------------------------------------------|


Palm-muting part II
Guitar 1: ...for awhile...but then all...
e|------------------------------------------------------------------|
B|------------------------------------------------------------------|
G|------------------------------------------------------------------|
D|------------------------------------------------------------------|
A|----5-5-5-5-7-7-7--5-5-9-5-9-5-5-5--0-5-5-5-5-7-7-7---------------|
D|--5----------------0-0---0---0-0-0--------------------------------|

Guitar 2: (again played at the same time as guitar 1)
e|------------------------------------------------------------------|
B|------------------------------------------------------------------|
G|------------------------------------------------------------------|
D|------------------------------------------------------------------|
A|-------------------5-5-5-5-5-5-5-5--0-0-0-0-0-0-0-0---------------|
D|--5-5-5-5-5-5-5-5--0-0-0-0-0-0-0-0--------------------------------|


Palm-muting part III
Guitar 1: ...that it needs...dreaming of you
e|------------------------------------------------------------------|
B|------------------------------------------------------------------|
G|------------------------------------------------------------------|
D|------------------------------------------------------------------|
A|--5-5-9-5-9-------------------------------------------------------|
D|------------9-9--5------------------------------------------------|

Guitar 2:
e|------------------------------------------------------------------|
B|------------------------------------------------------------------|
G|------------------------------------------------------------------|
D|------------------------------------------------------------------|
A|--2-2-2-2---------------------------------------------------------|
D|----------4-2-0--5------------------------------------------------|

the outro goes like this...(strumming not shown)
e|-----------3------------------------------------------------------|
B|--7--------3------------------------------------------------------|
G|--7--2--4--0------------------------------------------------------|
D|--7--2--4--0------------------------------------------------------|
A|--5--0--2--x------------------------------------------------------|
D|-----------3------------------------------------------------------|

0 reply
ONEppl1strgl 10 Aug 08, 2004 08:00 PM

dude just post ur own tab this is pretty good

+1 reply
shibby013 62 Nov 06, 2004 07:00 PM

oi mate have u ever heard of what they dop wen they record, tom will play one bit, the play the secong bit and put them together, in dammit the bridge has two guitars.

guest
Wanna post a correction for this tab? Suggest correction