Oops, an error
Loading. Please wait.
37,288 views 9 this week
1 commentread comment
1 2 3 4 5
x 11
add to favorites
×
Save as Personal and add changes to this tab that will be seen only by you. Learn more ›
×
You can save this tab as Personal to edit and correct it or add notes. All changes will be seen only by you. Learn more »
launch autoscroll
font size
0
reset
guitar tuner
edit
Autoscroll
slow
fast
+/-
esc
set tempo
stop
Author
-------------------------------------------------------------------------------
			     FEELING THIS - Blink-182
-------------------------------------------------------------------------------

Tuning: EADG

VERSE X2

G|---------------------------------------------------------------------------|
D|--------9----9---9----9---7676------6----6---6----6---7679-----------------|
A|-----77---77---7---77---7--------44---44---4---44---4----------------------|
E|---------------------------------------------------------------------------|

G|---------------------------------------------------------------------------|
D|--------9----9---9----9---7676------6----6---6----6------------------------|
A|-----77---77---7---77---7--------44---44---4---44---4----------------------|
E|------------------------------------------------------5457-----------------|

CHORUS X2

G|---------------------------------------------------------------------------|
D|---------------------------------------------------------------------------|  
A|-------------22222222-44444444-00000000------------------------------------|
E|----00000000---------------------------------------------------------------|

VERSE X2

CHORUS X1

BRIDGE

(Starts right when Mark starts singing the bridge)

G|---------------------------------------------------------------------------|
D|-----------------------------------22222222--------------------------------|
A|----7~~~~~~~~~------------------------------22222222-44444444-0000000------|
E|---------------------------------------------------------------------------|

G|---------------------------------------------------------------------------|
D|----22222222---------------642---------------------------------------------|
A|-------------22222222-4444-----2-------------------------------------------|
E|---------------------------------------------------------------------------|



Repeat VERSE until end.



This is my first tab, but i think it's pretty close (:



===============================================================================

            
            
Suggest correction
Creating personal tab
Creating personal tab
You can edit any tab online and save it as your Personal.

You can edit, replace or remove any tab part or add personal notes – all changes will be seen only by you.

Personal tabs can be accessed anytime from any device, even offline.
Learn more »
comments
print report bad tab
1 comment total.
0 reply
greenring 30 Jan 25, 2008 06:49 AM

VERSE 1

G|---------------------------------------------------------------------------|
D|--------9----9---9----6---7676------6----6---6----4---7679-----------------|
A|-----77---77---7---44---4--------44---44---4---22---2----------------------|
E|---------------------------------------------------------------------------|

G|---------------------------------------------------------------------------|
D|--------9----9---9----6---7676------6----6---6----4------------------------|
A|-----77---77---7---44---4--------44---44---4---22---2----------------------|
E|------------------------------------------------------5457-----------------| X2

CHORUS 1

G|---------------------------------------------------------------------------|
D|---------------------------------------------------------------------------|
A|-------------22222222-44444444-00000000------------------------------------|
E|----00000000---------------------------------------------------------------| X2

VERSE 2

G|---------------------------------------------------------------------------|
D|--------9----9---9----6---7676------6----6---6----4------------------------|
A|-----77---77---7---44---4--------44---44---4---22---2----------------------|
E|------------------------------------------------------5457-----------------|

G|---------------------------------------------------------------------------|
D|--------9----9---9----6---7676------6----6---6----4---7679-----------------|
A|-----77---77---7---44---4--------44---44---4---22---2----------------------|
E|---------------------------------------------------------------------------|

G|---------------------------------------------------------------------------|
D|--------9----9---9----6---7676------6----6---6----4------------------------|
A|-----77---77---7---44---4--------44---44---4---22---2----------------------|
E|------------------------------------------------------5457-----------------|

CHORUS 2

G|---------------------------------------------------------------------------|
D|---------------------------------------------------------------------------|
A|-------------22222222-44444444-00000000------------------------------------|
E|----00000000---------------------------------------------------------------| X2

BRIDGE

(Starts right when Mark starts singing the bridge)

G|---------------------------------------------------------------------------|
D|-----------------------------------22222222--------------------------------|
A|----7~~~~~~~~~------------------------------22222222-44444444-0000000------|
E|---------------------------------------------------------------------------|

G|---------------------------------------------------------------------------|
D|----22222222---------------642---------------------------------------------|
A|-------------22222222-4444-----0-------------------------------------------|
E|---------------------------------------------------------------------------|


FINAL CHORUS X8

G|---------------------------------------------------------------------------|
D|---------9-9-99----9---7676--------6----6----------------------------------|
A|------77--------77---7----------44---44---4-2-00000000---------------------|
E|---------------------------------------------------------------------------|



The tab has been updated!!

guest
You may want to rate the tab now too:
select rating
Wanna post a correction for this tab? Suggest correction