Oops, an error
Loading. Please wait.
3,802 views 3 this week
1 commentread comment
1 2 3 4 5
x 9
add to favorites
×
Save as Personal and add changes to this tab that will be seen only by you. Learn more ›
×
You can save this tab as Personal to edit and correct it or add notes. All changes will be seen only by you. Learn more »
launch autoscroll
font size
0
reset
guitar tuner
edit
Autoscroll
slow
fast
+/-
esc
set tempo
stop
Intro (no bass)

Verse 
G|---------------------------------------|
D|---9--9-9------------------------------| 
A|-77-77-7----9--9-9---11--11-11---9-----| x4
E|----------77-77-7--99--99--9---77-7-555|

Chorus 
G|-------------------------------------|
D|-------------------------------------|
A|----------2-222222-4-444444-0-000000-| x2
E|-00000000----------------------------|

no bass until Tom starts singing

Verse 
G|---------------------------------------|
D|---9--9-9------------------------------| 
A|-77-77-7----9--9-9---11--11-11---9-----| x3
E|----------77-77-7--99--99--9---77-7-555|

Chorus 
G|-----------------------------------------|
D|-----------------------------------------|
A|-----------2-222222-4-444444-0-000000----| x2
E|-000000000-------------------------------|

Mark's little singing solo
G|----|
D|----| 
A|-7~-| x1
E|----|

(Look to the past...)
G|-------------------------------------|
D|-------------------------------------|
A|-77777777-22222222-44444444-00000000-| x1
E|-------------------------------------|

G|------------------------------|
D|------------------------------|
A|-77777777-22222222-44444444-0-| x1
E|------------------------------|

Outro
G|-------------------------------------|
D|-------------------------------------|
A|----------22222222-44444444-00000000-| x8 (fade out with this)
E|-00000000----------------------------|

            
            
Suggest correction
Creating personal tab
Creating personal tab
You can edit any tab online and save it as your Personal.

You can edit, replace or remove any tab part or add personal notes – all changes will be seen only by you.

Personal tabs can be accessed anytime from any device, even offline.
Learn more »
comments
print report bad tab
1 comment total.
0 reply
RobMcdonald 73 May 01, 2016 10:13 PM

Inaccurate and too simple. It's a lot more of a complex song than you'd think. The bass work is drowned out a lot by the guitar and drums. There are a lot of complex picking techniques hoppus uses.

guest
Wanna post a correction for this tab? Suggest correction