Oops, an error
Loading. Please wait.
We have an official First Date tab made by UG professional guitarists. Check out the tab »
×
490,837 views 474 this week
90 commentsread comments
1 2 3 4 5
x 204
add to favorites
×
Save as Personal and add changes to this tab that will be seen only by you. Learn more ›
×
You can save this tab as Personal to edit and correct it or add notes. All changes will be seen only by you. Learn more »
launch autoscroll
font size
0
reset
how to read this tab
guitar tuner
edit
Autoscroll
slow
fast
+/-
esc
set tempo
stop
Author
Unregistered
[Intro]

e|--0------------------------------------------------------------|
B|---1-1-1-1-1-1-1-1-3-1-1-1-1-1-1-1-3-1-1-1-1-1-1-1-1-3-1-1-1-0-|
G|---------------------------------------------------------------|
D|---------------------------------------------------------------|  
A|---------------------------------------------------------------|
E|---------------------------------------------------------------|(x2)

e|-------------------------------------|
B|-------------------------------------|
G|---------------5---------------------|
D|---------------5----Let Ring---------|
A|---------------3---------------------|
E|-------------------------------------|


[Chorus]

e|------------------------------------------------|
B|------------------------------------------------|
G|--5-5-5-----------------------------------------|
D|--5-5-5--5-5-5--7-7-7-7--3-3--5-5---------------|
A|--3-3-3--5-5-5--7-7-7-7--3-3--5-5---------------|
E|---------3-3-3--5-5-5-5--1-1--3-3---------------|(x2)

e|------------------------------------------------|
B|------------------------------------------------|
G|--5-5-5-5---------------------------------------|
D|--5-5-5-5--5-5-5-5--7-7-7-7--3-3--5-5-----------|  
A|--3-3-3-3--5-5-5-5--7-7-7-7--3-3--3-3-----------|
E|-----------3-3-3-3--5-5-5-5--1-1--3-3-----------|(x3)


[Intro]


[Interlude]

e|---------------------------------------------------------------|
B|---------------------------------------------------------------|
G|---------------------------------------------------------------|  
D|--5-5-5-5-5-5-5-5--9-9-9-9-9-9--10-10-10-10-10-10--7-7-7-7-7-7-|
A|--3-3-3-3-3-3-3-3--7-7-7-7-7-7---8--8--8--8--8--8--5-5-5-5-5-5-|
E|---------------------------------------------------------------|(x2)
pm  . . . . . . . .  . . . . . .   .  .  .  .  .  .  . . . . . .

e|-------------------------------------------------------------------|
B|-------------------------------------------------------------------|
G|-------------------------------------------------------------------|
D|--5-5-5-5-5-5-5-5--9-9-9-9--5-5--10-10-10-10--5-5--7-7-7-7-7-7-7-7-|  
A|--3-3-3-3-3-3-3-3--7-7-7-7--3-3---8--8--8--8--3-3--5-5-5-5-5-5-5-5-|
E|-------------------------------------------------------------------|(x4)


[Chorus]

e|------------------------------------------------|
B|------------------------------------------------|
G|--5-5-5-----------------------------------------|
D|--5-5-5--5-5-5--7-7-7-7--3-3--5-5---------------|
A|--3-3-3--5-5-5--7-7-7-7--3-3--5-5---------------|
E|---------3-3-3--5-5-5-5--1-1--3-3---------------|(x4)

e|----------------------|
B|----------------------|
G|-----5----------------|
D|-----5----------------|
A|-----3----------------|
E|----------------------|



************************************

| .  palm mute

************************************
Suggest correction
Creating personal tab
Creating personal tab
You can edit any tab online and save it as your Personal.

You can edit, replace or remove any tab part or add personal notes – all changes will be seen only by you.

Personal tabs can be accessed anytime from any device, even offline.
Learn more »
comments
print report bad tab
90 comments total. Showing first comments.
+2 reply
Blink182#1fan 0 Jan 27, 2002 07:00 PM

This tab is totally
wrong

+3 reply
iceman4476 0 Feb 27, 2002 07:00 PM

Everything about this tab is wrong

+4 reply
some kid 0 Feb 27, 2002 07:00 PM

how the hell did this shity tab 4 stars

guest
Wanna post a correction for this tab? Suggest correction