Oops, an error
Loading. Please wait.

Ghost On The Dance Floor Bass Tab

version 3
version 3

Whole song

Interactive

13 views 1 this week
no commentswrite comment
1 2 3 4 5
2 more votes to show rating
add to favorites
launch autoscroll
font size
0
reset
guitar tuner
Autoscroll
slow
fast
+/-
esc
set tempo
stop
Help us to improve Ultimate-Guitar.com Take our survey!
×
[Intro] 3x

G|---------------------------------------------------------------------------|
D|---------------------------------------------------------------------------|
A|2-2-2-2-2-2-2--------------------------------------------------------------|
E|--------------0-0-0-0-0-0-0-0-4-4-4-4-4-4-4-4-0-0-0-0-0-0-0-0--------------|


[Verse] 4x for both verses

G|---------------------------------------------------------------------------|
D|---------------------------------------------------------------------------|
A|2-2-2-2-2-2-2-2------------------------------------------------------------|
E|----------------0-0-0-0-0-0-0-0-4-4-4-4-4-4-4-4-0-0-0-0-0-0-0-0------------|

G|---------------------------------------------------------------------------|
D|---------------------------------------------------------------------------|
A|---------------------------------------------------------------------------|
E|---------------------------------------------------------------------------|


[Chorus] 2x (after Verse 1 is done only play the chorus once then go back to the intro)

G|---------------------------------------------------------------------------|
D|---------------------------------------------------------------------------|
A|2-2-2-2-2-2-2-2-------------------------2-2-2-2----------------------------|
E|----------------0-0-0-0-2-2-2-2-2-2-2-2------------------------------------|

G|---------------------------------------------------------------------------|
D|---------------------------------------------------------------------------|
A|2-2-2-2-2-2-2-2-------------------------2-2-2-2----------------------------|
E|----------------0-0-0-0-2-2-2-2-2-2-2-2------------------------------------|


[bridge] 2x

G|---------------------------------------------------------------------------|
D|---------------------------------------------------------------------------|
A|-----7~~~-9~~~-------------------------------------------------------------|
E|7~~~-----------------------------------------------------------------------|




G|---------------------------------------------------------------------------|
D|---------------------------------------------------------------------------|
A|----------------7-7-7-7-9-9-9-9-9-9-9-9-7-7-7-7----------------------------|
E|7-7-7-7-7-7-7-7------------------------------------------------------------|


************************************

| ~   Vibrato

************************************
Suggest correction
Give kudos to tab author, rate the tab!
1 2 3 4 5
comments
print report bad tab
guest
You may want to rate the tab now too:
select rating
Wanna post a correction for this tab? Suggest correction