Oops, an error
Loading. Please wait.

Go tab

version 3
version 3
3,944 views 1 this week
4 commentsread comments
1 2 3 4 5
x 10
add to favorites
×
Save as Personal and add changes to this tab that will be seen only by you. Learn more ›
×
You can save this tab as Personal to edit and correct it or add notes. All changes will be seen only by you. Learn more »
launch autoscroll
font size
0
reset
how to read this tab
guitar tuner
edit
Autoscroll
slow
fast
+/-
esc
set tempo
stop
Author
Tabbed by: J.C
Email:weejonnycurrie@hotmail.com

Tuning:Standard.

This song is pretty easy to play. It sounds as though there are two guitars
playing in the intro, one playing a high bit, and another doing the low. I've done the low bit.

Intro
e|--------------------------------------------|
B|--------------------------------------------|
G|--55555555------------55555555--------------|
D|--55555555--33333333--55555555--33333333----|
A|--33333333--33333333--33333333--33333333----|
E|------------11111111------------11111111----|

Verse 1(Are we all victaims of...) - Play it twice.
e|------------------------------------------|
B|------------------------------------------|
G|------------------------------------------|
D|------------------------------------------|
A|--3 3 3 3 3 3 3 2 5 ----------------------|
E|--------------------1 1 1 1 1 1 1 1 1 1 1-|

Chorus (I dont wanna know...)
e|------------------------------------------|
B|------------------------------------------|
G|------------------------------------------|
D|---7777---3333---7777---3333--------------|
A|---7777---3333---7777---3333--------------|
E|---5555---1111---5555---1111--------------|

e|------------------------------------------|
B|------------------------------------------|
G|--55555555------------55555555------------|
D|--55555555--33333333--55555555--33333333--|
A|--33333333--33333333--33333333--33333333--|
E|------------11111111------------11111111--|

Verse 2 (Mum get in the car...) - Play Twice
e|------------------------------------------|
B|------------------------------------------|
G|------------------------------------------|
D|------------------------------------------|
A|--3 3 3 3 3 3 3 2 5 ----------------------|
E|--------------------1 1 1 1 1 1 1 1 1 1 1-|

Chorus
e|------------------------------------------|
B|------------------------------------------|
G|------------------------------------------|
D|---7777---3333---7777---3333--------------|
A|---7777---3333---7777---3333--------------|
E|---5555---1111---5555---1111--------------|

Interlude 

e|-------------------------------------------|
B|-------------------------------------------|
G|-------------------------------------------|
D|-------------------------------------------|
A|---3  5  7  3 3 1 3 5 33-----3  5 33133----|
E|-------------------------------------------|
>> Gather feedback at this point <<

e|------|
B|------|
G|------|
D|--7---|
A|--7---|
E|--5---|
-Pause- (I dont wanna know, I dont wanna know...)

(Go Go Go....)

e|------------------------------------------|
B|------------------------------------------|
G|------------------------------------------|
D|---7777---3333---7777---3333--------------|
A|---7777---3333---7777---3333--------------|
E|---5555---1111---5555---1111--------------|

Outro
e|------------------------------------------------|
B|------------------------------------------------|
G|--99999999---------------99999999---------------|
D|--xxxxxxxx---------------xxxxxxxx---------------|
A|--77777777---3-55-77-88--77777777---3-55-77-88--|
E|------------------------------------------------|

e|------------------------------------------------|
B|------------------------------------------------|
G|--99999999---------------99999999------10-------|
D|--xxxxxxxx---------------xxxxxxxx------10-------|
A|--77777777---3-55-77-88--77777777------8--------|
E|------------------------------------------------|

And that should be it. If there's any mistakes email me, or make me look stupid
by doing another better version and giving this one a really bad rating.

            
            
Suggest correction
Creating personal tab
Creating personal tab
You can edit any tab online and save it as your Personal.

You can edit, replace or remove any tab part or add personal notes – all changes will be seen only by you.

Personal tabs can be accessed anytime from any device, even offline.
Learn more »
comments
print report bad tab
4 comments total. Showing first comments.
0 reply
the_dandy_don 92 Jan 14, 2004 07:00 PM

This tab is wrong, and i cant b assed submitting another one. I think the ver. 7 is probably better

0 reply
blinkracer 10 Jan 22, 2004 07:00 PM

dud this is some sorry *** man, seriously if you play this and it sounds right to you Im sorry i think your mentally ill

0 reply
the_dandy_don 92 Jan 24, 2004 07:00 PM

Right ok, here's all the corrections to this tab, i cant b assed submitting another 1, coz they probably wont accept it coz there's already 7 versions:

Intro
e|---------------------------------------|
B|---------------------------------------|
G|--9999999999999999---------------------|
D|--xxxxxxxxxxxxxxxx----33333333333333---|
A|--7777777777777777----33333333333333---|
E|--8888888888888888----11111111111111---|

Interlude

e|-------------------------------------------|
B|-------------------------------------------|
G|-------------------------------------------|
D|-------2-----------------------------------|
A|---3-5---3-3-2-3-5-3-3-----3-5-3-3-2-3-3---|
E|-------------------------------------------|


Outro
e|------------------------------------------------------|
B|------------------------------------------------------|
G|--99999999---5-77-99-1010----99999999---5-77-99-1010--|
D|--xxxxxxxx-------------------xxxxxxxx-----------------|
A|--77777777---3-55-77-8-8-----77777777---3-55-77-8-8---|
E|--88888888-------------------88888888-----------------|

e|------------------------------------------------|
B|-----------------------------------------------|
G|--99999999---5-77-99-1010--99999999------------|
D|--xxxxxxxx-----------------xxxxxxxx---3--------|
A|--77777777---3-55-77-8-8---77777777---3--------|
E|--88888888-----------------88888888---1--------|

I've played those corrections through many times and they sound right, any further mistakes are probably because of my really bad typing skills. If not, feel free to shout at me more on this. :D J.C

guest
You may want to rate the tab now too:
select rating
Wanna post a correction for this tab? Suggest correction