Oops, an error
Loading. Please wait.
We have an official Going Away To College tab made by UG professional guitarists. Check out the tab »
×
14,941 views 12 this week
2 commentsread comments
1 2 3 4 5
x 10
add to favorites
launch autoscroll
font size
0
reset
guitar tuner
Autoscroll
slow
fast
+/-
esc
set tempo
stop
Song: Going Away to College 
Band: Blink 182 
Album: Enema of the state 
Tabbed by: Dom ( xb182punkx@yahoo.com ) 
Corrections by: Papa Cherry (JohnnyGoat@hotmail.com)

Riff #5 was completely off (no offense to Dom).  So
I figured it out and made the necessary corrections.

/ means slide up 
RIFF #1 
G:--------------------------------------------- 
D:--------------------------------------------- 
A:-22222222------------------------------------ 
E:----------0000-2222-------------------------- 

RIFF #2 
G:--------------------------------------------- 
D:----------2222-4444-------------------------- 
A:-22222222------------------------------------ 
E:--------------------------------------------- 

RIFF #3 
G:--------------------------------------------- 
D:-1111-2222----------------------------------- 
A:-----------2222------------------------------ 
E:----------------2222------------------------- 

RIFF #4 
G:--------------------------------------------- 
D:-1111-2222----------------------------------- 
A:-----------2222------------------------------ 
E:----------------2---------------------------- 

RIFF #5 (slow part)*THIS PART HAS BEEN CORRECTED*
G:----------------------------------------------- 
D:--------2--------2h4------------1h2------4---2- 
A:-2---------------------2----2h4h--------------- 
E:----------------------------------------------- 

*Order* 
Riff 1 x 2 
Riff 2 x 4 
Riff 1 x 2 
Riff 2 x 4 
Riff 3 x 3 
Riff 4 x 1 
Riff 1 x 2 
Riff 2 x 4 
Riff 3 x 3 
Riff 4 x 1 
Riff 5 x 1 
Riff 3 x 3 
Riff 4 x 1
Suggest correction
comments
print report bad tab
2 comments total.
0 reply
iammarkhoppus 50 May 17, 2002 08:00 PM

Dude this tab kicks arse!

-1 reply
BenjaUribe 133 Feb 21, 2013 06:24 AM

I think:

Chorus/Riff #3:

G|-----------------|-----------------|-----------------|-----------------|
D|-----------------|-----------------|-----------------|-----------------|
A|-----------------|-----------------|-2---2-2-2-2-2-2-|-----------------|
E|-4---4-4-4-4-4-4-|-0---0-0-0-0-0-0-|-----------------|-2---2-2-2-2-2-2-|

guest
You may want to rate the tab now too:
select rating
Wanna post a correction for this tab? Suggest correction