Oops, an error
Loading. Please wait.
We have an official Going Away To College tab made by UG professional guitarists. Check out the tab »
×

Going Away To College tab

4,249 views 219 this week
no commentswrite comment
1 2 3 4 5
x 3
add to favorites
×
Save as Personal and add changes to this tab that will be seen only by you. Learn more ›
×
You can save this tab as Personal to edit and correct it or add notes. All changes will be seen only by you. Learn more »
launch autoscroll
font size
0
reset
how to read this tab
guitar tuner
edit
Autoscroll
slow
fast
+/-
esc
set tempo
stop
Author
About this tab version
In my version I have included a strumming patern for the intro and time stamps to make the tab easier.Also you'll find that I changed most of the song and that in contrast to other tabs this tab does not require a capo. Was this info helpful? Yes No
-------------------------------------------------------------------------------
                      Going Away To College - blink-182
-------------------------------------------------------------------------------
Tabbed by:okman
Artist:blink-182
Album:Enema of the State
Song:Going Away To College
Tuning:Standard (e B G D A E)

For the intro, I used my own strumming patern , but if you don't feel comfortable with it 
feel free to use your own.


 [00:00-00:04 Tom DeLonge (Lead Guitar)]

e|--------------------------------------------------------------------------|
B|--------------------------------------------------------------------------|
G|-8-8--8-8-8-6--6-6--6-6-6--8--8-8--8-8-8--6--6-6--6-6-6-------------------|
D|-9-9--9-9-9-9--9-9--9-9-9--9--9-9--9-9-9--9--9-9--9-9-9-------------------|x1
A|-7-7--7-7-7-7--7-7--7-7-7--7--7-7--7-7-7--7--7-7--7-7-7-------------------|
E|--------------------------------------------------------------------------|
   D D  D U D U  D U  D U D  U  D U  D U D  U  D U  D U D

 [00:04-00:08 Tom DeLonge (Lead Guitar)]

e|--------------------------------------------------------------------------|
B|-4-4--4-4-4-2--2-2--2-2-2--4--4-4--4-4-4--2--2-2--2-2-2-------------------|
G|-4-4--4-4-4-4--4-4--4-4-4--4--4-4--4-4-4--4--4-4--4-4-4-------------------|
D|-2-2--2-2-2-2--2-2--2-2-2--2--2-2--2-2-2--2--2-2--2-2-2-------------------|x1
A|--------------------------------------------------------------------------|
E|--------------------------------------------------------------------------|
   D D  D U D U  D U  D U D  U  D U  D U D  U  D U  D U D


 [00:08-00:13 Tom DeLonge (Lead Guitar)]

e|--------------------------------------------------------------------------|
B|--------------------------------------------------------------------------|
G|-8-8--8-8-8-6--6-6--6-6-6--8--8-8--8-8-8--6--6-6--6-6-6-------------------|
D|-9-9--9-9-9-9--9-9--9-9-9--9--9-9--9-9-9--9--9-9--9-9-9-------------------|x1
A|-7-7--7-7-7-7--7-7--7-7-7--7--7-7--7-7-7--7--7-7--7-7-7-------------------|
E|--------------------------------------------------------------------------|
   D D  D U D U  D U  D U D  U  D U  D U D  U  D U  D U D

 [00:13-00:18 Tom DeLonge (Lead Guitar)]

e|--------------------------------------------------------------------------|
B|-4-4--4-4-4-2--2-2--2-2-2--4--4-4--4-4-4--2~------------------------------|
G|-4-4--4-4-4-4--4-4--4-4-4--4--4-4--4-4-4--4~------------------------------|
D|-2-2--2-2-2-2--2-2--2-2-2--2--2-2--2-2-2--2~------------------------------|x1
A|--------------------------------------------------------------------------|
E|--------------------------------------------------------------------------|
   D D  D U D U  D U  D U D  U  D U  D U D  U  


[00:18-00:28 Tom DeLonge (Lead Guitar)]

e|---------------------------------------------------------------------------|
B|---------------------------------------------------------------------------|
G|-----------8-----------8-----------8---------------------------------------|
D|-----9-----------9-----------9------------11-----11------------------------|x2
A|-------------------------7-7---7-7---/9-9----9-9---------------------------|
E|-7-7---7-7---7-7---7-7-----------------------------------------------------|


[00:28-00:37 Break]

e|---------------------------------------------------------------------------|
B|---------------------------------------------------------------------------|
G|---------------------------------------------------------------------------|
D|---------------------------------------------------------------------------|
A|---------------------------------------------------------------------------|
E|---------------------------------------------------------------------------|


[00:37-00:46 Tom DeLonge (Lead Guitar)]

e|---------------------------------------------------------------------------|
B|---------------------------------------------------------------------------|
G|-----------------9--9-9-9-9-9-9-9-11--11-11-11-11-11-11-11-----------------|
D|-9-9-9-9-9-9-9-9-9--9-9-9-9-9-9-9-11--11-11-11-11-11-11-11-----------------|x2
A|-9-9-9-9-9-9-9-9-7--7-7-7-7-7-7-7-9---9--9--9--9--9--9--9------------------|
E|-7-7-7-7-7-7-7-7-----------------------------------------------------------|


 [00:46-00:55 Tom DeLonge (Lead Guitar)]

e|---------------------------------------------------------------------------|
B|---------------------------------------------------------------------------|
G|-----------8-----------8-----------8---------------------------------------|
D|-----9-----------9-----------9------------11-----11------------------------|x2
A|-------------------------7-7---7-7---/9-9----9-9---------------------------|
E|-7-7---7-7---7-7---7-7-----------------------------------------------------|

 [00:55-01:04 Break]

e|---------------------------------------------------------------------------|
B|---------------------------------------------------------------------------|
G|---------------------------------------------------------------------------|
D|---------------------------------------------------------------------------|
A|---------------------------------------------------------------------------|
E|---------------------------------------------------------------------------|

 01:04-01:13 Tom DeLonge (Lead Guitar)
e|---------------------------------------------------------------------------|
B|---------------------------------------------------------------------------|
G|-----------------9--9-9-9-9-9-9-9-11--11-11-11-11-11-11-11-----------------|
D|-9-9-9-9-9-9-9-9-9--9-9-9-9-9-9-9-11--11-11-11-11-11-11-11-----------------|x2
A|-9-9-9-9-9-9-9-9-7--7-7-7-7-7-7-7-9---9--9--9--9--9--9--9------------------|
E|-7-7-7-7-7-7-7-7-----------------------------------------------------------|


 [01:13-01:27 Tom DeLonge (Lead Guitar)]

e|---------------------------------------------------------------------------|
B|---------------------------------------------------------------------------|
G|-/8--8-8-8-8-8-8-9--9-9-9-9-9-9-4--4-4-4-4-4-4-3--3-3-3-3-3-3--------------|
D|--x--x-x-x-x-x-x-x--x-x-x-x-x-x-x--x-x-x-x-x-x-x--x-x-x-x-x-x--------------|x3
A|-/6--6-6-6-6-6-6-7--7-7-7-7-7-7-2--2-2-2-2-2-2-1--1-1-1-1-1-1--------------|
E|---------------------------------------------------------------------------|


 [01:27-01:32  Tom DeLonge (Lead Guitar)]

e|---------------------------------------------------------------------------|
B|---------------------------------------------------------------------------|
G|-/8--8-8-8-8-8-8-9--9-9-9-9-9-9-4--4-4-4-4-4-4-3~--------------------------|
D|--x--x-x-x-x-x-x-x--x-x-x-x-x-x-x--x-x-x-x-x-x-x---------------------------|x1
A|-/6--6-6-6-6-6-6-7--7-7-7-7-7-7-2--2-2-2-2-2-2-1~--------------------------|
E|---------------------------------------------------------------------------|


[01:32-01:41 Tom DeLonge (Lead Guitar)]

e|---------------------------------------------------------------------------|
B|---------------------------------------------------------------------------|
G|-----------8-----------8-----------8---------------------------------------|
D|-----9-----------9-----------9------------11-----11------------------------|x2
A|-------------------------7-7---7-7---/9-9----9-9---------------------------|
E|-7-7---7-7---7-7---7-7-----------------------------------------------------|

 01:41-01:46 Tom DeLonge (Lead Guitar)
e|---------------------------------------------------------------------------|
B|---------------------------------------------------------------------------|
G|-----8-----8-----8-----8-----8-----8-----9-----8---------------------------|
D|---------------------------------------------------------------------------|x1
A|-7-7---7-7---7-7---7-7---7-7---7-7---7-7---7-7-----------------------------|
E|---------------------------------------------------------------------------|
   . .   . .   . .   . .   . .   . .   . .   . .


[01:46-01:50 Tom DeLonge (Lead Guitar)]

e|---------------------------------------------------------------------------|
B|---------------------------------------------------------------------------|
G|-----8-----8-----8-----8-----8-----8-----9---------------------------------|
D|-----------------------------------------------9---------------------------|x1
A|-7-7---7-7---7-7---7-7---7-7---7-7---7-7---7-7-----------------------------|
E|---------------------------------------------------------------------------|
   . .   . .   . .   . .   . .   . .   . .   . .


 [01:50-01:58 Tom DeLonge (Lead Guitar)]
e|---------------------------------------------------------------------------|
B|---------------------------------------------------------------------------|
G|-----------------9--9-9-9-9-9-9-9-11--11-11-11-11-11-11-11-----------------|
D|-9-9-9-9-9-9-9-9-9--9-9-9-9-9-9-9-11--11-11-11-11-11-11-11-----------------|x2
A|-9-9-9-9-9-9-9-9-7--7-7-7-7-7-7-7-9---9--9--9--9--9--9--9------------------|
E|-7-7-7-7-7-7-7-7-----------------------------------------------------------|


 [01:58-02:13 Tom DeLonge (Lead Guitar)]

e|---------------------------------------------------------------------------|
B|---------------------------------------------------------------------------|
G|-/8--8-8-8-8-8-8-9--9-9-9-9-9-9-4--4-4-4-4-4-4-3--3-3-3-3-3-3--------------|
D|--x--x-x-x-x-x-x-x--x-x-x-x-x-x-x--x-x-x-x-x-x-x--x-x-x-x-x-x--------------|x3
A|-/6--6-6-6-6-6-6-7--7-7-7-7-7-7-2--2-2-2-2-2-2-1--1-1-1-1-1-1--------------|
E|---------------------------------------------------------------------------|


 [02:13-02:19 Tom DeLonge (Lead Guitar)]

e|---------------------------------------------------------------------------|
B|---------------------------------------------------------------------------|
G|-/8--8-8-8-8-8-8-9--9-9-9-9-9-9-4--4-4-4-4-4-4-3~--------------------------|
D|--x--x-x-x-x-x-x-x--x-x-x-x-x-x-x--x-x-x-x-x-x-x---------------------------|x1
A|-/6--6-6-6-6-6-6-7--7-7-7-7-7-7-2--2-2-2-2-2-2-1~--------------------------|
E|---------------------------------------------------------------------------|


 [02:19-02:23 Tom DeLonge (Lead Guitar)]

e|--------------------------------------------------------------------------|
B|--------------------------------------------------------------------------|
G|-8-8--8-8-8-6--6-6--6-6-6--8--8-8--8-8-8--6--6-6--6-6-6-------------------|
D|-9-9--9-9-9-9--9-9--9-9-9--9--9-9--9-9-9--9--9-9--9-9-9-------------------|x1
A|-7-7--7-7-7-7--7-7--7-7-7--7--7-7--7-7-7--7--7-7--7-7-7-------------------|
E|--------------------------------------------------------------------------|
   D D  D U D U  D U  D U D  U  D U  D U D  U  D U  D U D

 [02:23-02:27 Tom DeLonge (Lead Guitar)]

e|--------------------------------------------------------------------------|
B|-4-4--4-4-4-2--2-2--2-2-2--4--4-4--4-4-4--2--2-2--2-2-2-------------------|
G|-4-4--4-4-4-4--4-4--4-4-4--4--4-4--4-4-4--4--4-4--4-4-4-------------------|
D|-2-2--2-2-2-2--2-2--2-2-2--2--2-2--2-2-2--2--2-2--2-2-2-------------------|x1
A|--------------------------------------------------------------------------|
E|--------------------------------------------------------------------------|
   D D  D U D U  D U  D U D  U  D U  D U D  U  D U  D U D

 [02:27-02:31 Tom DeLonge (Lead Guitar)]

e|--------------------------------------------------------------------------|
B|--------------------------------------------------------------------------|
G|-8-8--8-8-8-6--6-6--6-6-6--8--8-8--8-8-8--6--6-6--6-6-6-------------------|
D|-9-9--9-9-9-9--9-9--9-9-9--9--9-9--9-9-9--9--9-9--9-9-9-------------------|x1
A|-7-7--7-7-7-7--7-7--7-7-7--7--7-7--7-7-7--7--7-7--7-7-7-------------------|
E|--------------------------------------------------------------------------|
   D D  D U D U  D U  D U D  U  D U  D U D  U  D U  D U D

 [02:31-02:36 Tom DeLonge (Lead Guitar)]

e|--------------------------------------------------------------------------|
B|-4-4--4-4-4-2--2-2--2-2-2--4--4-4--4-4-4--2--2-2--2-2-2-------------------|
G|-4-4--4-4-4-4--4-4--4-4-4--4--4-4--4-4-4--4--4-4--4-4-4-------------------|
D|-2-2--2-2-2-2--2-2--2-2-2--2--2-2--2-2-2--2--2-2--2-2-2-------------------|x1
A|--------------------------------------------------------------------------|
E|--------------------------------------------------------------------------|
   D D  D U D U  D U  D U D  U  D U  D U D  U  D U  D U D

 [02:36-02:50 Tom DeLonge (Lead Guitar)]

e|---------------------------------------------------------------------------|
B|---------------------------------------------------------------------------|
G|-/8--8-8-8-8-8-8-9--9-9-9-9-9-9-4--4-4-4-4-4-4-3--3-3-3-3-3-3--------------|
D|--x--x-x-x-x-x-x-x--x-x-x-x-x-x-x--x-x-x-x-x-x-x--x-x-x-x-x-x--------------|x3
A|-/6--6-6-6-6-6-6-7--7-7-7-7-7-7-2--2-2-2-2-2-2-1--1-1-1-1-1-1--------------|
E|---------------------------------------------------------------------------|


[02:50-02:55 Tom DeLonge (Lead Guitar)]

e|---------------------------------------------------------------------------|
B|---------------------------------------------------------------------------|
G|-/8--8-8-8-8-8-8-9--9-9-9-9-9-9-4--4-4-4-4-4-4-3~--------------------------|
D|--x--x-x-x-x-x-x-x--x-x-x-x-x-x-x--x-x-x-x-x-x-x---------------------------|x1
A|-/6--6-6-6-6-6-6-7--7-7-7-7-7-7-2--2-2-2-2-2-2-1~--------------------------|
E|---------------------------------------------------------------------------|


************************************
| x   Dead note
| U   Up Strum 
| D   Down Strum
| /   Slide up
| ~   Vibrato
| .  Palm mute
************************************
Suggest correction
Creating personal tab
Creating personal tab
You can edit any tab online and save it as your Personal.

You can edit, replace or remove any tab part or add personal notes – all changes will be seen only by you.

Personal tabs can be accessed anytime from any device, even offline.
Learn more »
Give kudos to tab author, rate the tab!
1 2 3 4 5
comments
print report bad tab
guest
You may want to rate the tab now too:
select rating
Wanna post a correction for this tab? Suggest correction