Oops, an error
Loading. Please wait.

Going Away To College Bass Tab

version 3
version 3
25,698 views 45 this week
6 commentsread comments
1 2 3 4 5
x 16
add to favorites
launch autoscroll
font size
0
reset
guitar tuner
×
Best way to learn
"Going Away To College"
Autoscroll
slow
fast
+/-
esc
set tempo
stop
there is no bass in the intro only guitar...

       pre-verse
G|------------------------|
D|------------------------|   2x
A|-----22222222-----------|
E|--------------0000-2222-|

          verse
G|------------------------|   2x
D|--------------2222-4444-|
A|-----22222222-----------|
E|------------------------|

G|-r----------------------|
D|-e---------2222-4444----|    2x
A|-s-2-2-2-2--------------|
E|-t----------------------|

           chorus
G|------------------------|
D|-1111-2222--------------|    3x
A|-----------2222---------|
E|----------------2222----|

G|------------------------------|
D|-1111-2222--------------------|     1x
A|-----------2222---------------|
E|----------------2-------------|(let ring)

            pre-verse
G|------------------------|
D|------------------------|     2x
A|-22222222---------------|
E|----------0000-2222-----|

            verse
G|------------------------|
D|----------2222-4444-----|      2X
A|-22222222---------------|
E|------------------------|

G|r-----------------------|
D|e---------2222-4444-----|      2x
A|s-2-2-2-2---------------|
E|t-----------------------|

           chorus
G|------------------------|
D|-1111-2222--------------|      3X
A|-----------2222---------|
E|----------------2222----|

G|--------------------------------|
D|-1111-2222----------------------|       1x
A|-----------2222-----------------|
E|----------------2---------------|(let ring)

         bridge
G|-------------------------------------------|
D|------------2h4p2------------1h2-42-42-----|    1X
A|-2(let ring)------2(let ring)--------------|
E|-------------------------------------------|

        chorus
G|------------------------|
D|-1111-2222--------------|       3X
A|-----------2222---------|
E|-----------------2222---|

G|-------------------------------|
D|-1111-2222---------------------|      1X
A|-----------2222----------------|
E|-----------------2-------------|(let ring until end)
Suggest correction
comments
print report bad tab
6 comments total. Showing first comments.
0 reply
nicklopeke 31 Dec 11, 2006 05:50 AM

Superb tab dude, thumbs up.

0 reply
catchy phrase 92 Jan 31, 2007 06:10 PM

good, except the chorus is wrong.

0 reply
nicklopeke 31 Mar 24, 2007 10:16 AM

Bridge should be:

G|-----------------------------------------|
D|-----------------------2h4-------124--42-|
A|-2~-------------22~--------2~--2---------| x1
E|-----------------------------------------|

guest
You may want to rate the tab now too:
select rating
Wanna post a correction for this tab? Suggest correction