Oops, an error
Loading. Please wait.
We have an official Going Away To College tab made by UG professional guitarists. Check out the tab »
×

Going Away To College Tab

version 5
version 5

Whole song

Video

13,305 views 33 this week
4 commentsread comments
1 2 3 4 5
x 7
add to favorites
×
Save as Personal and add changes to this tab that will be seen only by you. Learn more ›
×
You can save this tab as Personal to edit and correct it or add notes. All changes will be seen only by you. Learn more »
save as personal
new!
launch autoscroll
font size
0
reset
how to read this tab
guitar tuner
Autoscroll
slow
fast
+/-
esc
set tempo
stop
This was tabbed by: Blinker27
Blink-182: Going Away To College
email me at - blinker37@aol.com

heres a good sounding version of going away to college... probably 
not right... but good. 


intro part 1... play this kinda soft
-----------------------------------------------------------------
-----------------------------------------------------------------
--8-8--8-8-8---8--8--8--8--8------8-8--8-8-8----8--8--8--8--8----
--9-9--9-9-9--11-11-11-11-11--X2--9-9--9-9-9---11-11-11-11-11--X2
----------------------------------7-7--7-7-7----7--7--7--7--7----
--7-7--7-7-7---7--7--7--7--7-------------------------------------

Whole intro 1 - X2


intro part 2 play 2 times
-------------------------------------------------
------------4-----------4------------4------2---2
------4-----------4------------4-----------------  
---------------------------2-2---2-2-----4----4--
--2-2---2-2---2-2---2-2--------------------------  
-------------------------------------------------

i dont really know the chords after this part... but
here are the ones where he sings the part where hes like:

I haven't been this scared, in a long time


---------------------------------
---------------------------------
-8-8-8-8-8-8-8-8--9-9-9-9-9-9-9-9
-x-x-x-x-x-x-x-x--x-x-x-x-x-x-x-x
-6-6-6-6-6-6-6-6--7-7-7-7-7-7-7-7
---------------------------------

and im so unprepared, so heres your valentine
---------------------------------
---------------------------------
---------------------------------
-9-9-9-9-9-9-9-9--4-4-4-4-4-4-4-4
-9-9-9-9-9-9-9-9--4-4-4-4-4-4-4-4
-7-7-7-7-7-7-7-7--2-2-2-2-2-2-2-2

then u go back to intro 1 and play this again
and your done......... have fun!

BLinkeR 37@aol.com
Suggest correction
comments
print report bad tab
4 comments total. Showing first comments.
0 reply
Loserkid1eight2 10 Apr 24, 2002 08:00 PM

Your intro is waaaaaaaaaaaaaaaaaaay off the mark dude. Apart from that...not a bad tab. Keep trying :)

0 reply
wezwerran 83 Oct 18, 2007 10:59 AM

the intros sounds fairly good but its hard to play

0 reply
Cartdude2 50 Feb 13, 2014 08:10 AM

the intro just needs to be moved up a step so its
e:-------------------------------------------------------------
B:-------------------------------------------------------------
G:--66-666-6-66-6666--66-666-6-66-6666-------------------------
D:--77-777-9-99-9999--77-777-9-99-9999------------------------- X2
A:--xx-xxx-x-xx-xxxx--55-555-5-55-5555-------------------------
E:--55-555-5-55-5555-------------------------------------------

and the rift goes like this
e:-------------------------------------------------------------
B:-------------------------------------------------------------
G:----------6---------6---------6------------------------------
D:-----7---------7---------7---------9----9-------------------- X2
A:--00---00---00---00---55---55---77---77----------------------
E:-------------------------------------------------------------

but otherwise good job dude

guest
Wanna post a correction for this tab? Suggest correction