Oops, an error
Loading. Please wait.

Going Away To College Tab

version 7
version 7

Whole song

Video

54,937 views 45 this week
10 commentsread comments
1 2 3 4 5
x 38
add to favorites
launch autoscroll
font size
0
reset
how to read this tab
guitar tuner
×
Best way to learn
"Going Away To College"
Autoscroll
slow
fast
+/-
esc
set tempo
stop
Capo
2nd fret
BAND – BLINK 182
ALBUM – ENEMA OF THE STATE
SONG – GOING AWAY TO COLLEGE
Capo II             This tab is 100% correct.


[Intro] 
e|-------------------------------------------------------------------|
B|------2-2-2-2-2-0---0-0-0-0-2---2-2-2-2-2-0---0-0-0----------------|
G|------2-2-2-2-2-2---2-2-2-2-2---2-2-2-2-2-2---2-2-2-0-0------------|
D|------X-X-X-X-X-X---X-X-X-X-X---X-X-X-X-X-X---X-X-X-0-0------------| x2
A|------0-0-0-0-0-0---0-0-0-0-0---0-0-0-0-0-0---0-0-0-0-0------------|
E|-------------------------------------------------------------------|

e|-------------------------------------------------------------------|
B|------2-2-2-2-2-0--0-0-0-0-0-2--2-2-2-2-2-0--0-0-0-0-2-2-----------|
G|------2-2-2-2-2-2--2-2-2-2-2-2--2-2-2-2-2-2--2-2-2-2-2-2-----------|
D|------0-0-0-0-0-0--0-0-0-0-0-0--0-0-0-0-0-0--0-0-0-0-x-x-----------|
A|-----------------------------------------------------0-0-----------|
E|-------------------------------------------------------------------|

On second time end on this
e|--------------|
B|---0----------|
G|---2----------|
D|---0----------|
A|--------------|
E|--------------|

Riff A x2
e|-------------------------------------------------------------------|
B|-------------------------------------------------------------------|
G|------------6--------------6-------------6-------------------------|
D|-----7-------------7--------------7-------------9-------9----------|
A|-0-0----0-0----0-0-----0-0----5-5----5-5----7-7-----7-7------------|
E|-------------------------------------------------------------------|

[Verse] (Part 1) x2             #HOLD FOR 4 BARS#
e|-------------------------------------------------------------------|
B|-------------------------------------------------------------------|
G|---2---------------------------------------------------------------|
D|---2---------------------------------------------------------------|
A|---0---------------------------------------------------------------|
E|-------------------------------------------------------------------|

[Verse] (Part 2) x2
   N.C.
e|-------------------------------------------------------------------|
B|-------------------------------------------------------------------|
G|------2-2-2--2-2-2-2--7-7-7-7--9-9-9-9-----------------------------|
D|------2-2-2--2-2-2-2--7-7-7-7--9-9-9-9-----------------------------|
A|------0-0-0--0-0-0-0--5-5-5-5--7-7-7-7-----------------------------|
E|-------------------------------------------------------------------|

[Chorus]
e|----------------------------------------------------------------|
B|----------------------------------------------------------------|
G|--6-6-6-6--7-7-7-7----------------------------------------------| x3
D|--6-6-6-6--7-7-7-7--7-7-7-7--2-2-2-2----------------------------|
A|--4-4-4-4--5-5-5-5--7-7-7-7--2-2-2-2----------------------------|
E|--------------------5-5-5-5--0-0-0-0----------------------------|

e|----------------------------------------------------------------|
B|----------------------------------------------------------------|
G|--6-6-6-6--7-7-7-7----------------------------------------------| x1
D|--6-6-6-6--7-7-7-7--7-7-7-7--2----------------------------------|
A|--4-4-4-4--5-5-5-5--7-7-7-7--2----------------------------------|
E|--------------------5-5-5-5--0----------------------------------|

[Verse] (Part 3) x2
PM~~~~~~~~~~~~~~~~~~~~~~~~~~~~~~~~~~~~~~~~~~~~~~~~~~~~~~~~~~~~~~~~~~~
e|-------------------------------------------------------------------|
B|-------------------------------------------------------------------|
G|-----6------6------6------6------6------6------7-------------------|
D|------------------------------------------------------7------------|
A|-0-0----0-0----0-0----0-0----5-5----5-5----7-7----7-7--------------|
E|-------------------------------------------------------------------|

INTRO
RIFF A
VERSE(PART 1)
VERSE(PART 2)
RIFF A
VERSE(PART 1)
VERSE(PART 2)
CHORUS
RIFF A
VERSE(PART 3)
VERSE(PART 2)
CHORUS
INTRO
CHORUS



************************************

| x  Dead note

************************************
Suggest correction
comments
print report bad tab
10 comments total. Showing first comments.
0 reply
chrisk182 0 Mar 12, 2002 07:00 PM

Perfect! Its just how it is in the tab book!

0 reply
barnze182 80 Dec 29, 2004 07:00 PM

Finally!! the right tab

0 reply
xxTBSxx 10 Jun 19, 2005 08:00 PM

in the verse part 2 the D and E power chords are like this X5X7XX and X7X9XX and on the Chorus the C# and D Chords are like this X4X6XX and X7X5XX but other than that its perfect nice job!

guest
You may want to rate the tab now too:
select rating
Wanna post a correction for this tab? Suggest correction