Oops, an error
Loading. Please wait.

Greatest Hits Bass Tab

version 2
version 2

Album

6,900 views 1 this week
10 commentsread comments
1 2 3 4 5
accurate
x 13
add to favorites
launch autoscroll
font size
0
reset
guitar tuner
Tab Pro tools
  • play this tab
  • loop segment
  • change instrument
  • show fretboard
  • metronome
×
Best way to learn
"Greatest Hits"
Autoscroll
slow
fast
+/-
esc
set tempo
stop
Contributor
Difficulty
intermediate
by Harry brown
please rate it good as its correct and better than the other bass greatest hits tabs!

\=slide down   /=slide up  x=dead notes

Carousel
Intro
G--14-14-14-12-12-12-11-11-|--14-14-14-12-12-12-11-11-|
D---0--0--0--0--0--0--0--0-|---0--0--0--0--0--0--0--0-|
A--------------------------|--------------------------|
E--------------------------|--------------------------|

G--6-6-6-7-7-7-9-9-|--6-6-6-7-7-7-9-9-|
D--7-7-7-7-7-7-7-7-|--7-7-7-7-7-7-7-7-|
A------------------|------------------|
E------------------| -----------------|

G--12-12-12-11-11-11--9-9-|--12-12-12-11-11-11--9-9-|
D---9--9--9--9--9--9--9-9-|---9--9--9--9--9--9--9-9-|
A-------------------------|-------------------------|
E-------------------------|-------------------------|

G--7-7-7-7-7-7-7-7-|--7-7-7-7-7-7-7-7-|
D--5-5-5-5-5-5-5-5-|--5-5-5-5-5-5-5-5-|
A------------------|------------------|
E------------------|------------------|

 bass solo
G---11-11-12-14-12-11----6-6-7-9-7-6---9-9-11-12-11-9-11------------|
D--0-----------------12/7-----------7\9---------------------7--7--7-|
A--------------------------------------------------------55--55--5--|
E-------------------------------------------------------------------|

stuming
G--xx-11-11-xx-9-9-xx-11-11-xx-7-7-|
D--xx--0--0-xx-7-7-xx--9--9-xx-5-5-|
A----------------------------------|
E----------------------------------|

Bridge
G--------------------------------------|
D--------------------------------------|
A--55555555-00000000-22222222----------|
E-----------------------------33333333-|

 high bridge    (when distorted guitar comes in)
G--11-11-11-11-11-11-11-11-9-9-9-9-9-9-9-9-11-11-11-11-11-11-11-11-|
D------------------------------------------------------------------|
A------------------------------------------------------------------|
E------------------------------------------------------------------|

--7-7-7-7-7-7-7-7-|
------------------|
------------------|
------------------|

Verse
G--------------------------------------|
D--------------------------------------|
A--55555555-00000000-22222222----------|
E-----------------------------33333333-|

Chorus
G--------------------------------------|
D--------------------------------------|
A--55555555-77777777-------------------|
E--------------------55555555-33333333-|on the 4th time only play the 5 once
guitar solo
G----------------------------------------|--------------------------------|
D----------------------------------------|--------------------------------|
A--5--solo-|--0-solo-|--2-solo-|---------|--5-solo-|--0-solo-|--2222------|
E----------|---------|---------|--3-solo-|---------|---------|-------3333-|

End
G----------|
D----------|
A--5-------|
E----------|

Order
intro x2
bass solo x2
struming x4
bridge x2
high bridge x4
verse x4
chorus x4
bridge x2
verse x4
high bridge x2
guitar solo x2
bridge x2
chorus x4
end x1
--------------------------------------------------------------------------

M&M's

~=let ring

Intro and Verse (come in after a few seconds)
G-------------------------------------------------------------------|
D-------------------------------------------------------------------|
A--7-7-7-7-7-7-7-7------------------4-4-4-4-4-4-4-4-0-0-0-0-0-0-0-0-|
E-------------------7-7-7-7-7-7-7-7---------------------------------|

Chorus
G----------------------------------|
D----------------------------------|
A--------------------------2-2-2-2-|
E--2-2-2-2-5-5-5-5-0-0-0-0---------|

Bridge
G---------------|
D---------------|
A--7~----4~--0~-|
E-----7~--------|

break
G------------------|
D------------------|
A--7-7-7-7-7-7-7-7-|
E------------------|

End on 7 on the A string

Order
intro x2
verse x4
chorus x4
intro x2
verse x4
chorus x4
bridge x2
break x8
verse x4
end x1
----------------------------------------------------------------------------
Dammit

Intro and verse(come in after 2 bars of guitar)
G------------------------------------------------------------------|
D------------------------------------------------------------------|
A--3-3-3-3-3-3-3-3-------------------------------------------------|
E------------------3-3-3-3-3-3-3-3-5-5-5-5-5-5-5-5-1-1-1-1-1-1-1-1-|

chorus(half time feel)
G-------------------------------------------------------------------|
D-------------------------------------------------------------------|
A--3---3-3-3--3-3--3---3-3-3---3-3----------------------------------|
E----------------------------------3---3-3-3-----3-3-3---3-3-3--3-3-|

------------------------------------------------------------------|
------------------------------------------------------------------|
------------------------------------------------------------------|
--5--5-5-5--5-5--5--5-5-5---5-5--1--1-1-1--1-1--1---1-1-1---1-1---|

Interlude
G------|---------|------|---------|------|----------|------|--------|------|
D------|---------|------|---------|------|----------|------|--------|------|
A--3---|----3--4-|--5---|-----5-6-|--7---|-----7--7-|--8---|-----8--|--3---|
E------|---------|------|---------|------|----------|------|--------|------|

-----------|-----|--------|------|--------|---------------------------------|
-----------|-----|--------|------|--------|---------------------------------|
----3-4----|-5---|----5-6-|--7---|----7-7-|--8-8-8-8-8-8-8-8-10-10-10-10-10-|
-----------|-----|--------|------|--------|---------------------------------|

----------------|
----------------|
-10-10-10-10-10-|
----------------|

Order
intro and verse x12
chorus x2
intro and verse x8
interlude x1
intro and verse x5(on 5th time end on 3 on the A string)
---------------------------------------------------------------------------
Josie (ill tab this all out as it has different endings)
~=let note ring

intro part 1                 intro part 2
G--4~-----4~------4~-----4~-|44444444-44444444-44444444-44444444-|
D--4~-----4~------4~-----4~-|44444444-66666666-22222222-22222222-|
A---------------------------|------------------------------------|
E---------------------------|------------------------------------|

intro part 3
G--44444444-44444444-88888888-44444444-|
D--44444444-66666666-66666666-22222222-|
A--------------------------------------|
E--------------------------------------|

verse
G-------------------------------------------------------------------|
D-------------------------------------------------------------------|
A--22222222------------------------22222222-44444444-777777777777777|
E----------22222222-0000000000000000--------------------------------|

G----------------------------------------------------------------------------|
D----------------------------------------------------------------------------|
A--22222222-----------------------22222222-44444444-777777777777777-22222222-|
E----------22222222-000-000-000000-------------------------------------------|

G-------------------------------------------------------------------|
D-------------------------------------------------------------------|
A--22222222------------------------22222222-44444444-777777777777777|
|----------22222222-0000000000000000--------------------------------|

G-------------------------------------------------------------------|
D-------------------------------------------------------------------|
A--22222222------------------------22222222-44444444-777777777777777|
E----------22222222-00-000-000-000----------------------------------|

G-------------------------------------------------------------------|
D-------------------------------------------------------------------|
A----------------------------------2222222222222222-2222222222222222|
E--2222222222222222-0000000000000000--------------------------------|

G-------------------------------------------------------------------|
D-------------------------------------------------------------------|
A------------------4444444444444444---------------------------------|
E--2222222222222222----------------0000000000000000-0000000000000000|

chorus
G-------------------------------------|
D-------------------------------------|
A--22222222---------------------------|
E----------22222222-00000000-4444-2222|

G------------------------------------------------------|
D------------------------------------------------------|
A--22222222---------------------------222222222--------|
E----------22222222-00000000-4444-2222-----------------|

verse
G--------------------------------------------------------------------|
D--------------------------------------------------------------------|
A--22222222-------------------------22222222-44444444-777777777777777|
E----------22222222-0000000000000000---------------------------------|

G--------------------------------------------------------------------|
D--------------------------------------------------------------------|
A--22222222-------------------------22222222-44444444-777777777777777|
E----------22222222-000-000-000-000----------------------------------|

G-------------------------------------------------------------------|
D-------------------------------------------------------------------|
A----------------------------------2222222222222222-2222222222222222|
E--2222222222222222-0000000000000000--------------------------------|

G-------------------------------------------------------------------|
D-------------------------------------------------------------------|
A------------------4444444444444444---------------------------------|
E--2222222222222222----------------0000000000000000-0000000000000000|


chorus
G-------------------------------------|
D-------------------------------------|
A--22222222---------------------------|
E----------22222222-00000000-4444-2222|

G-------------------------------------|
D-------------------------------------|
A--22222222---------------------------|
E----------22222222-00000000-4444-2222|

G-------------------------------------|
D-------------------------------------|
A--22222222---------------------------|
E----------22222222-00000000-4444-2222|

G------------------------------------------------------|
D------------------------------------------------------|
A--22222222---------------------------222222222--------|
E----------22222222-00000000-4444-2222-----------------|

intro part 2
G--44444444-44444444-22222222-22222222|
D--44444444-66666666-44444444-44444444|
A-------------------------------------|
E-------------------------------------|
intro part 2
G--44444444-44444444-22222222-22222222|
D--44444444-66666666-44444444-44444444|
A-------------------------------------|
E-------------------------------------|
intro part 3
G--44444444-44444444-88888888-22222222|
D--44444444-66666666-66666666-44444444|
A-------------------------------------|
E-------------------------------------|
intro part 2
G--44444444-44444444-222222222--------|
D--44444444-66666666-444444444--------|
A-------------------------------------|
E-------------------------------------|

chorus
G-------------------------------------|
D-------------------------------------|
A--22222222---------------------------|
E----------22222222-00000000-4444-2222|

G-------------------------------------|
D-------------------------------------|
A--22222222---------------------------|
E----------22222222-00000000-4444-2222|

G-------------------------------------|
D-------------------------------------|
A--22222222---------------------------|
E----------22222222-00000000-4444-2222|

G----------------------------------------------------------------------------|
D----------------------------------------------------------------------------|
A--22222222---------------------------222222222~-----------------------------|
E----------22222222-00000000-4444-2222---------------------------------------|
-----------------------------------------------------------------------------|

Whats my age again (1 of there best)
ill do it in order as its nice and easy

Intro
G--------------------------------|
D--------------------------------|
A--2-2-2-2-------4-4-4-4-6-6-6-6-|
E---------2-2-2-2----------------| x5

intro ending
G------------------------------------------------|
D------------------------------------------------|
A--2-2-2-2-------4-4-4-4-4-4-4-4-6-6-6-6-6-6-6-6-|
E---------2-2-2-2--------------------------------| x1

Chorus
G------------------------|
D--4---------------------|
A----4-4--6-6--2-2-2-2-4-|
E------------------------| x3
4
Chorus ending
G--------------------------------------------|
D--4-----------------------------------------|
A----4-4--6--6-6-6-6-6-6-6-6-4-4-4-4-4-4-4-4-|
E--------------------------------------------| x1

Strum
G------|
D--4~--|
A--2~--|
E------| x1

Intro
G--------------------------------|
D--------------------------------|
A--2-2-2-2-------4-4-4-4-6-6-6-6-|
E---------2-2-2-2----------------| x3

intro ending
G------------------------------------------------|
D------------------------------------------------|
A--2-2-2-2-------4-4-4-4-4-4-4-4-6-6-6-6-6-6-6-6-|
E---------2-2-2-2--------------------------------| x1

Chorus
G------------------------|
D--4---------------------|
A----4-4--6-6--2-2-2-2-4-|
E------------------------| x3

Chorus ending
G--------------------------------------------|
D--4-----------------------------------------|
A----4-4--6--6-6-6-6-6-6-6-6-4-4-4-4-4-4-4-4-|
E--------------------------------------------| x1

Interlude
G---------------|----------------|----------------|----------------|
D-----8----8--8-|------6----6--6-|-----4----4---4-|-----6----6---6-|
A--6-6--6-6--6--|--4-4--4-4---4--|--2-2--2-2---2--|--4-4--4-4---4--|
E---------------|----------------|----------------|----------------|X4

Interlude ending
---------------|---------------|
-----4----4--4-|-----6----6--6-|
--2-2--2-2--2--|--4-4--4-4--4--|
---------------|---------------|X1


Chorus
G------------------------|
D--4---------------------|
A----4-4--6-6--2-2-2-2-4-|
E------------------------| x3

Chorus ending
G--------------------------------------------|
D--4-----------------------------------------|
A----4-4--6--6-6-6-6-6-6-6-6-4-4-4-4-4-4-4-4-|
E--------------------------------------------| x1

Chorus
G------------------------|
D--4---------------------|
A----4-4--6-6--2-2-2-2-4-|
E------------------------| x3

Chorus ending
G--------------------------------------------|
D--4-----------------------------------------|
A----4-4--6--6-6-6-6-6-6-6-6-4-4-4-4-4-4-4-4-|
E--------------------------------------------| x1

Chorus
G------------------------|
D--4---------------------|
A----4-4--6-6--2-2-2-2-4-|
E------------------------| x3

Chorus ending
G--------------------------------------------|
D--4-----------------------------------------|
A----4-4--6--6-6-6-6-6-6-6-6-4-4-4-4-4-4-4-4-|
E--------------------------------------------| x1

End on 2~ on the A string
----------------------------------------------------------------------------
 All the small things

Intro
G------|
D------|
A------|
E--3-1-|

Main Riff
G-------------------|-----------------|-----------------|-----------------|
D-------------------|-----------------|-----------------|-----------------|
A--3-3-3-3-3-3-3-3--|-3-3-3-3-3-3-3-5-|-----------------|-----------------|
E-------------------|-----------------|-3-3-3-3-3-3-3-3-|-3-x-x-x-x-1-1-1-|

Verse
G------------------|-----------------|-----------------|-----------------|
D------------------|-----------------|-----------------|-----------------|
A--3-3-3-3-3-3-3-3-|-----------------|-----------------|-----------------|
E------------------|-3-3-3-3-3-3-3-3-|-1-1-1-1-1-1-1-1-|-3-3-3-3-3-3-3-3-|

Pre-Chorus
G------------------|-----------------|-------------------------|-------|
D------------------|-----------------|-------------------------|-------|
A--3-3-3-3-3-3-3-3-|-3-3-3-3-3-3-3-3-|-10-10-10-10-10-10-10-10-|-8-8-8-|
E------------------|-----------------|-------------------------|-------|

------------|
------------|
--8-8-8-8-8-|
------------|

Chorus
G------------------|-----------------|-----------------|-----------------|
D------------------|-----------------|-----------------|-----------------|
A--3-3-3-3-3-3-3-3-|-3-3-3-3-3-3-3-3-|-----------------|-----------------|
E------------------|-----------------|-3-3-3-3-3-3-3-3-|-1-1-1-1-1-1-1-1-|

Interlude
G--------------------|-------------------|-------------------|
D--------------------|-------------------|-------------------|
A--3-------8---10----|-3-------8---10----|-3-------8---10----|
E--------------------|-------------------|-------------------|

Interlude continued
G------------------|-----------------|-----------------|-------------------|
D------------------|-----------------|-----------------|-------------------|
A--3-3-3-3-3-3-3-3-|-3-3-3-3-3-3-3-3-|-8-8-8-8-8-8-8-8-|-10-10-10-10-10-10-|
E------------------|-----------------|-----------------|-------------------|

---------|
---------|
--10-10--|
---------|

Outro                   outro fill here 2nd time---------------------------|v
G------------------|-----------------|-----------------|-------------------|
D------------------|-----------------|-----------------|-------------------|
A--3-3-3-3-3-3-3-3-|-3-3-3-3-3-3-3-3-|-----------------|-------------------|
E------------------|-----------------|-3-3-3-3-3-3-3-3-|-x-x-1---x-x-1-----|

Outro Fill
G------------------|-----------------|----|
D------------------|-----------------|----|
A------------------|-----------------|-3--|
E--x-x-1---x-x-1---|-x-x-1---x-x-1---|----|

Order
intro x1
main riff x2
verse x4
prechorus x1
chorus x2
main riff x2
verse x2
prechorus x1
chorus x2
interlude x1
chorus x2
outro x1
----------------------------------------------------------------------------
 Adams song

Verse
G-------------------------------------------------------------|
D-------------------------------------------------------------| x4
A--3-3-3-3-3-3-3---------------0-0-0-0-0-0-0-0----------------|
E---------------1-1-1-1-1-1-1-1---------------1-1-1-1-1-1-1-1-|

Pre-Chorus
G---------------------------------------------------------------------|
D---------------------------------------------------------------------| x1
A--3-3-3-3-3-3-3-3-3-3-5-5-5-5-5-5-5-5-0-0-0-0-0-0-0-0----------------|
E-----------------------------------------------------1-1-1-1-1-1-1-1-|

Chorus
G-------------------------------------------------------------------|
D-------------------------------------------------------------------| x1
A--3-3-3-3-3-3-3-3-5-5-5-5-5-5-5-5-0-0-0-0-0-0-0-0------------------|
E--------------------------------------------------1-1-1-1-1-1-1-1--|

G------------------------------------------------------------------|
D------------------------------------------------------------------| x1
A--3-3-3-3-3-3-3-3-5-5-5-5-5-5-5-5-0-0-0-0-0-0-0-0-8-8-8-8-8-8-8-8-|
E------------------------------------------------------------------|

G-------------------------------------------------------------------|
D--5-5-5-5-5-5-5-5-7-7-7-7-7-7-7-7-7-7-7-7-7-7-7-7-1010101010101010-|
A--3-3-3-3-3-3-3-3-5-5-5-5-5-5-5-5-0-0-0-0-0-0-0-0--8-8-8-8-8-8-8-8-|x2
E-------------------------------------------------------------------|

Pre-Verse
(While guitar is picking the second time)
G--------------------------------------|
D---------=----------------------------| x1
A-=3-3-3-3----------0-0-0-0------------|
E-----------1-1-1-1---------1-1-1-1----|

Verse
G---------------------------------------------------------------|
D---------------------------------------------------------------| x4
A--3-3-3-3-3-3-3-3---------------0-0-0-0-0-0-0-0----------------|
E-----------------1-1-1-1-1-1-1-1---------------1-1-1-1-1-1-1-1-|

Pre-Chorus
(While guitar is picking the second time)
G---------------------------------------------------------------------|
D---------------------------------------------------------------------| x1
A--3-3-3-3-3-3-3-3-3-3-5-5-5-5-5-5-5-5-0-0-0-0-0-0-0-0----------------|
E-----------------------------------------------------1-1-1-1-1-1-1-1-|

Chorus
G-------------------------------------------------------------------|
D-------------------------------------------------------------------| x1
A--3-3-3-3-3-3-3-3-5-5-5-5-5-5-5-5-0-0-0-0-0-0-0-0------------------|
E--------------------------------------------------1-1-1-1-1-1-1-1--|

G------------------------------------------------------------------|
D------------------------------------------------------------------| x1
A--3-3-3-3-3-3-3-3-5-5-5-5-5-5-5-5-0-0-0-0-0-0-0-0-8-8-8-8-8-8-8-8-|
E------------------------------------------------------------------|

G-------------------------------------------------------------------|
D--5-5-5-5-5-5-5-5-7-7-7-7-7-7-7-7-7-7-7-7-7-7-7-7-1010101010101010-|
A--3-3-3-3-3-3-3-3-5-5-5-5-5-5-5-5-0-0-0-0-0-0-0-0--8-8-8-8-8-8-8-8-|x2
E-------------------------------------------------------------------|

Bridge
G-------------5--5-5---7--7-7---5--5-5-|
D----5--5-5-33-33-3--55-55-5--33-33-3--| x1
A--33-33-3-----------------------------|
E--------------------------------------|

G-------------5--5-5---7--7-7---9---5--|
D----5--5-5-33-33-3--55-55-5--77--33---| x1
A--33-33-3-----------------------------|
E--------------------------------------|

G-------------5--5-5---7--7-7---5--5-5-|
D----5--5-5-33-33-3--55-55-5--33-33-3--| x1
A--33-33-3-----------------------------|
E--------------------------------------|

G-------------5--5-5---7--7-7---9---5--|
D----5--5-5-33-33-3--55-55-5--77--33---| x1
A--33-33-3-----------------------------|
E--------------------------------------|

Chorus
G-------------------------------------------------------------------|
D-------------------------------------------------------------------| x1
A--3-3-3-3-3-3-3-3-5-5-5-5-5-5-5-5-0-0-0-0-0-0-0-0------------------|
E--------------------------------------------------1-1-1-1-1-1-1-1--|

G------------------------------------------------------------------|
D------------------------------------------------------------------| x1
A--3-3-3-3-3-3-3-3-5-5-5-5-5-5-5-5-0-0-0-0-0-0-0-0-8-8-8-8-8-8-8-8-|
E------------------------------------------------------------------|

G-------------------------------------------------------------------|
D--5-5-5-5-5-5-5-5-7-7-7-7-7-7-7-7-7-7-7-7-7-7-7-7-1010101010101010-|
A--3-3-3-3-3-3-3-3-5-5-5-5-5-5-5-5-0-0-0-0-0-0-0-0--8-8-8-8-8-8-8-8-|x2
E-------------------------------------------------------------------|

Outro
G----------------------|
D----------------------|  ~=let ring
A--3~~~~~~~~~~~~~~~~~~-|
E----------------------|

----------------------------------------------------------------------------

Man overboard

intro
G-------7-5-4-----7-5-4-----7-5-4-5-4-5-4-|
D--5-5-5-----5-5-5-----5-5-5--------------|
A-----------------------------------------|
E-----------------------------------------|

power chord
G--2~--|
D--0~--|
A------|
E------|

verse
G-----------------------------------------------------------------|
D-----------------------------------------------------------------|
A-------------------------------------------------3-3-3-3-3-3-5-5-|
E--3-3-3-3-3-3-3-3-3-3-3-3-3-3-5-5-0-0-0-0-0-0-0-0----------------|

chorus
G--------------------------------------------------------------------------|
D--------------------------------------------------------------------------|
A--10-10-10-10-10-10-10-10-5-5-5-5-5-5-5-5-7-7-7-7-7-7-7-7-3-3-3-3-3-3-3-3-|
E--------------------------------------------------------------------------|

bridge part 1
G---------------------------------------------------------------------|
D----------------------------------------------5------5------5------5-|
A--10-10-10--10-10-10--12-12-12--12-12-12--3-3-3--3-3-3--3-3-3--3-3-3-|
E---------------------------------------------------------------------|

bridge part 2
G----------------------------------------------------------|
D----------------------------------------------5------5--7-|
A--10-10-10--10-10-10--12-12-12--12-12-12--3-3-3--3-3-3--5-|
E----------------------------------------------------------|

outro
G-------7-5-4-----7-5-4------7-5-4----------------------|
D--5-5-5-----5-5-5------5-5-5------7-7-7-7-7-7-7-7------|
A-------------------------------------------------------|
E----------------------------------------------------3~-|

Order
intro x6
power chord x1
verse x6
chorus x2
verse x4
chorus x2
bridge part 1 x3
bridge part 2 x1
verse x4
intro x3
outro x1
----------------------------------------------------------------------------

Rock show

intro and verse
G-----------------------------------------------------------------|
D-----------------------------------------------------------------|
A---------------------------------5-5-5-5-5-5-5-5-7-7-7-7-7-7-7-7-|
E--5-5-5-5-5-5-5-5-5-5-5-5-5-5-5-5--------------------------------|

pre verse
G--------------------------------|
D--------------------------------|
A--------------------------------|
E--5-5-5-5-5-5-5-5-5-5-5-5-5-5-5-|

chorus
G------------------|
D------------------|
A-------------5-5--|
E--5-5-5--2-2------|

chorus ending
G-------------------------------------------------------------------|
D-------------------------------------------------------------------|
A--7-7-7-7-7-7-7-7-5-5-5-5-5-5-5-5-7-7-7-7-7-7-7-7-5-5-5-5-5-5-5-5--|
E-------------------------------------------------------------------|

--------------------------|
--------------------------|
--7-7-7-7-7-7-7-7-7--5--4-|
--------------------------|

bridge part 1
G-------------------------------------------------------------------|
D--4-4-4-4-4-4-4-4-4-4-4-4-4-4-2-2-0-0-0-0-0-0-0-0-2-2-0-0----------|
A----------------------------------------------------------4-4-2-2--|
E-------------------------------------------------------------------|

bridge part 2
G------------------------------------------------------------------|
D---------------------------------2-2-2-2-2-2-2-2-2-2-2-2-0-0-2-2--|
A--0-0-0-0-0-0-0-0-0-0-0-0-2-2-4-4---------------------------------|
E------------------------------------------------------------------|

bridge part 3
G------------------------------------------------------------------|
D---------------------------------2-2-2-2-2-2-2-2-0-0-0-0-0-0-0-0--|
A--0-0-0-0-0-0-0-0-0-0-0-0-2-2-4-4---------------------------------|
E------------------------------------------------------------------|

Order
intro x2
pre verse x1
verse x6
chorus x3
chorus ending x1
verse x4
chorus x3
chorus ending x1
bridge part 1 x1
bridge part 2 x1
bridge part 1 x1
bridge part 3 x1
chorus x3
chorus ending x1
intro until fades out
----------------------------------------------------------------------------
First Date

intro (after short drum intro)
G--------------------------------------------------------------------------|
D--------------------------------------------------------------------------|
A--3-3-3-3-3-3-3-3-5-5-5-5-5-5-5-5-8-8-8-8-8-8-8-8-10-10-10-10-10-10-10-10-|
E--------------------------------------------------------------------------|

verse
G------------------------------------------------------------------|
D------------------------------------------------------------------|
A--3-3-3-3-3-3-3-3-3-3-3-3-3-3-3-3---------------------------------|
E----------------------------------3-3-3-3-3-3-3-3-1-1-1-1-1-1-1-1-|

chorus
G---------------------------------------------|
D---------------------------------------------|
A--3-3-3--2-2-2--0-0-0-0-0-0-0-0--------------|
E--------------------------------1-1-1--3-3-3-|

chorus part 2
G---------------------------------------------------------------|
D---------------------------------------------------------------|
A--3-3-3-3-3-3-3-3-2-2-2-2-2-2-2-2-0-0-0-0-0-0-0-0--------------|
E--------------------------------------------------1-1-1--3-3-3-|

interlude
G------------------------------------------------------------------|
D------------------------------------------------------------------|
A--3-3-3-3-3-3-3-3-------------------------------------------------|
E------------------0-0-0-0-0-0-0-0-1-1-1-1-1-1-1-1-3-3-3-3-3-3-3-3-|

end
G------|
D--5~--|
A--3~--|
E------|

Order
intro x2
verse x4
chorus x2
chorus part 2 x2
intro x2
verse x4
chorus x2
chorus part 2 x2
break until guitar guitar changes
interlude x4 (on 4th time dont play the 3's go to the chorus)
chorus x2
chorus part 2 x4
end x1
----------------------------------------------------------------------------
Stay together for the kids

chorus
G-------------------------------------------------------------------|
D-------------------------------------------------------------------|
A-------------------------------------------------------------------|
E-3-3-3-3-3-3-3-3-3-3-3-3-3-3-3-3-2-2-2-2-2-2-2-2-2-2-2-2-2-2-2-0-2-|

verse
G-----7--------7--------7-----7---7--------7--------7--------9-----9--9---|
D--0-0--0---0-0--0---9-9--9-----9---9---7-7--7---7-7--7---7-7--7--7--7--7-|
A-------------------------------------------------------------------------|
E-------------------------------------------------------------------------|

interlude                                    INTERLUDE ENDING V
G---7--7-------7--7------7--7------7--7-----|---7--7------7-----9-|
D--0--0--0-0-7--7--7-7--5--5--5-5-7--7--7-7-|--5--5--5-5-7--7-7---|
A-------------------------------------------|---------------------|
E-------------------------------------------|---------------------|

Order
dont play in the long guitar intro
chorus x4
break while guitar plays
verse x2  (when sining comes in)
chorus x4
interlude x4 (on 4th time play interlude ending)
chorus until fades out
----------------------------------------------------------------------------
Feeling this

ill do it in order as its short

the drums do intro
verse (when singing comes in)
G------------------------|
D------------------------|
A--7-7-7-7-77--777-11-11-|
E------------------------|x8

chorus
G-----------------------------------------------------------------|
D-----------------------------------------------------------------|
A-----------------2-2-2-2-2-2-2-2-4-4-4-4-4-4-4-4-0-0-0-0-0-0-0-0-|
E--0-0-0-0-0-0-0-0------------------------------------------------|x2

(wait for singing)
verse
G------------------------|
D------------------------|
A--7-7-7-7-77--777-11-11-|
E------------------------|x6

chorus
G-----------------------------------------------------------------|
D-----------------------------------------------------------------|
A-----------------2-2-2-2-2-2-2-2-4-4-4-4-4-4-4-4-0-0-0-0-0-0-0-0-|
E--0-0-0-0-0-0-0-0------------------------------------------------|x2

break until he sings 'look to the past and '

bridge and outro
G------------------------------------------------------------------|
D--2-2-2-2-2-2-2-2-------------------------------------------------|
A-----------------2-2-2-2-2-2-2-2-4-4-4-4-4-4-4-4-0-0-0-0-0-0-0-0--|
E------------------------------------------------------------------| until its only singing
-------------------------------------------------------------------|
I miss you

H.O=hammer on

intro and verse(after drums play 2 bars)
   H.O    H.O    H.O    H.O
G-----------------------------|
D-----------------------------|
A-----------------------------|
E--0-7-7--0-6-6--0-4-4--0-6-6-|

chorus
G------------------------------------------------------------------|
D------------------------------------------------------------------|
A--2-2-2-2-4-4-4-4-6-6-6-6-9-9-9-9-7-7-7-7-6-6-6-6-2-2-2-2-2-2-2-2-|
E------------------------------------------------------------------|

interlude
   H.O    H.O    H.O    H.O    H.O    H.O    H.O    H.O
G----------------------------------------------------------|
D----------------------------------------------------------|
A----------------------------------------------------------|
E--0-4-4--0-6-6--0-7-7--0-6-6--0-4-4--0-6-6--0-7-7--0-6-6--|

Order
intro and verse x6
chorus x2 (on the second time hold the 2)
intro and verse x4
chorus x2
interlude x1
chorus until fades out
----------------------------------------------------------------------------
Down

intro come in after drums)
G---------------------------|
D---------------------------|
A--2222-2222-22-----1111-11-|
E--------------2\444--------|

verse
G---------------------------|
D---------------------------|
A--6/2-2222-22--4/2-1111-11-|
E---------------------------|

pre-chorus
G------|
D------|
A------|
E--0~--|

chorus
G-----------------------------------------------------------------------|
D-----------------------------------------------------------------------|
A-------------------1111111111111111-2222222222222222-------------------|
E--4444444444444444-----------------------------------22-22-22-22-2222--|

-----------------------------------|
-----------------------------------|
------------------1111111111111111-|
--4444444444444444-----------------|

chorus ending(when he sings down down down down)
G---------------------------------------------------------------------|----|
D---------------------------------------------------------------------|----|
A--2222222222222222---------------------------------------------------|--2~|
E------------------0000000000000000-4444444444444444-0000000000000000-|----|

outro
G----------------------|
D----------------------|
A--2~~~~~~~~~~~~~~~0~--|
E----------------------|

Order
intro x2
verse x4
pre-chorus x1
chorus x1
chorus ending x2 (on the 2nd time play the 2~)
verse x4
pre-chorus x1
chorus x1
chorus ending x2
outro x1
----------------------------------------------------------------------------
Always

intro
G--4-4-4-4-4-4-4-4-6-6-6-6-6-6-6-6-8-8-8-8-8-8-8-8-4-4-4-4-4-4-4-4-|
D--4-4-4-4-4-4-4-4-4-4-4-4-4-4-4-4-6-6-6-6-6-6-6-6-2-2-2-2-2-2-2-2-|
A------------------------------------------------------------------|
E------------------------------------------------------------------|

verse 1
G--11-11-11-11-11-11-11-11-6-6-6-6-6-6-6-6-4-4-4-4-4-4-4-4-4-4-4-4-4-4-4-4-|
D---9--9--9--9--9--9--9--9-8-8-8-8-8-8-8-8-6-6-6-6-6-6-6-6-6-6-6-6-6-6-6-6-|
A--------------------------------------------------------------------------|
E--------------------------------------------------------------------------|

verse 2
G--4-4-4-4-4-4-4-4-6-6-6-6-6-6-6-6--------------------------------|
D---------------------------------6-6-6-6-6-6-6-6-2-2-2-2-2-2-2-2-|
A-----------------------------------------------------------------|
E-----------------------------------------------------------------|


chorus
G-----------------------------------------------------------------|
D-----------------------------------------------------------------|
A--2-2-2-2-2-2-2-2-4-4-4-4-4-4-4-4--------------------------------|
E---------------------------------4-4-4-4-4-4-4-4-0-0-0-0-0-0-0-0-|

verse 3
G---------------------------------------------------------|
D---------------------------------------------------------|
A--6----------6-----4----------4----6---------------------|
E-------7----------------6----------------4-------2//4----|


interlude
G-------------------------------------------------------------------|
D-------------------------------------------------------------------|
A--2-2-2-2-2-2-2-2-4-4-4-4-4-4-4-4-2-2-2-2-2-2-2-2--2-6-6-6-6-2-2-2-|
E-------------------------------------------------------------------|

end
G------|   |--4~--|
D------| or|--4~--|
A--2~--|   |------|
E------|   |------|

Order
intro x2
verse 1 x2
verse 2 x2
chorus x6
verse 3 x4
chorus x8
interlude x4
chorus x4
interlude x4
end x1
----------------------------------------------------------------------------

Not now

Intro
G------------------------------------|
D------------------------------------|
A--222-555-00000000------------------|x4
E------------------3333-5-3-22222222-|

Verse
G---------------|
D---------------|
A--5~~~~~~~~~~~-|x4
E---------------|

Pre Chorus
G-----------------------------------------------------------------|
D-----------------------------------------------------------------|
A--555555555555-7777777777777777----------------------------------|x2
E-------------------------------2222222222222222-3333333333333333-|

Chorus
G------------------------------------------------|
D------------------------------------------------|
A--/55555555554-00000000054/22222222254--------5-|x1
E--------------------------------------33333333--|

Pre Verse
G------------------------------------|
D------------------------------------|
A--222-555-00000000------------------|x2
E------------------3333-5-3-22222222-|

Verse
G---------------|
D---------------|
A--5~~~~~~~~~~~-|x4
E---------------|

Chorus
G----------------------------------------------------------|
D----------------------------------------------5555-5h7p5--|
A--/55555555554-00000000054/22222222254--------------------|x1
E--------------------------------------33333333------------|

then

G---------------------------------------------------------|
D---------------------------------------77777777-55555555-|
A--/55555555554-00000000054/22222222254-------------------|x1
E---------------------------------------------------------|

Bridge
G-----|   |-----------------------------------|
D-----|   |-----------------------------------|
A--5~-|x1 |-222-555-00000000------------------|x4
E-----|   |-----------------3333-5-3-22222222-|

Chorus(do sequence twice)
G-------------------------------------------------------------------|
D-------------------------------------------------------5555-5h7p5--|
A--/55555555555554-00000000000054/22222222222254--------------------|x1
E-----------------------------------------------33333333------------|

G------------------------------------------------------------------|
D------------------------------------------------77777777-55555555-|
A--/55555555555554-00000000000054/22222222222254-------------------|x1
E------------------------------------------------------------------|

Outro
G------------------------------------|  |------------------------------------|
D------------------------------------|  |------------------------------------|
A--222-555-00000000------------------|x4|-2~-5~-0~---------------------------|x1
E------------------3333-5-3-22222222-|  |------------------------------------|
-----------------------------------------------------------------------------|
Another girl another planet

intro
G-----|
D-----|
A-----|
E--3~-|

riff 1
G--------------------------------------------------------------|
D--------------------------------------------------------------|
A-----------------5-5-5-5-5-5-5-5-7-7-7-7-7--5--3--3-3-3-3-3-3-|
E--3-3-3-3-3-3-3-3---------------------------------------------|

chorus
G-------------------------------------------------------|
D-------------------------------------------------------|
A-----------------5-5-5-5-5-5-5-5-7-7-7-7-3-3-3-3--7--5-|
E--3-3-3-3-3-3-3-3--------------------------------------|

riff 2
G----------------|
D----------------|
A------5~----3~--|
E--3~------------|

end
G-----|
D-----|
A-----|
E--3--|

Order
intro x1(after drum roll)
riff 1 x8
chorus x2
riff 1 x2
chorus x2
riff 2 x1
riff 1 x6
chorus x4
riff 1 x2
end x1
----------------------------------------------------------------------------
I won't be home for christmas

Riff 1 (Intro)
G-----------------------------------------------------------------------|
D--5555555555555555-2222222222222222------------------------------------|
A------------------------------------5555555555555555-33333333-55555555-|
E-----------------------------------------------------------------------|

Riff 2 (Verse)
G-----------------------------------------------------------------------|
D--5555555555555555-2222222222222222------------------------------------|
A------------------------------------3333333333333333-5555555555555555--|
E-----------------------------------------------------------------------|

Riff 3 ( between verse)
G-----------------------------------------------------------------------|
D--5555555555555555-----------------------------------------------------|
A-----------------------------------------------------------------------|
E-----------------------------------------------------------------------|

Riff 4 (Chorus)
G-----------------------------------------------------------------------|
D--55555555----------22222222-------------------------------------------|
A-----------55555555----------33333333----------------------------------|
E-----------------------------------------------------------------------|

Riff 5 (Chorus ending/just leave)
G-----------------------------------------------------------------------|
D-------5*--------------------------------------------------------------|
A--5555-----------------------------------------------------------------|
E-----------------------------------------------------------------------|

Riff 6 (I won't be home)
G-----------------------------------------------------------------------|
D--------12-------12-------12-------12-----9-----9-----5-----5----------|
A--10-10----10-10----12-12----12-12----7-7---7-7---3-3---3-3------------|
E-----------------------------------------------------------------------|

Riff 7 (End)
G-----------------------------------------------------------------------|
D----5*-----------------------------------------------------------------|
A-----------------------------------------------------------------------|
E-----------------------------------------------------------------------|

Order:
riff 1 x 2
riff 2 x 2
riff 3 x 1
riff 2 x 2
riff 4 x 4
riff 5 x 1
riff 1 x 2
riff 2 x 2
riff 4 x 4
riff 5 x 1
riff 6 x 8
----------------------------------------------------------------------------
Go
Intro

G---------------------------------------------------------------------|
D---------------------------------------------------------------------|
A--3-3-3-3-3-3-3-3--3-3-3-3-3-3-3-0-----------------------------------|
E------------------------------------1-1-1-1-1-1-1-1--1-1-1-1-1-1-1-1-|

G---------------------------------------------------------------------|
D---------------------------------------------------------------------|
A--3-3-3-3-3-3-3-3--3-3-3-3-3-3-3-0-----------------------------------|
E------------------------------------1-1-1-1-1-1-1-1--1-1-1-1-1-1-1-1-|

Verse

G---------------------------------------------------------------------|
D---------------------------------------------------------------------|
A--3-3-3-3-3-3-3-3--3-3-3-3-2-2-5-5-----------------------------------|
E--------------------------------------1-1-1-1-1-1-1--1-1-1-1-1-1-1-1-|

G---------------------------------------------------------------------|
D---------------------------------------------------------------------|
A--3-3-3-3-3-3-3-3--3-3-3-3-2-2-5-5-----------------------------------|
E--------------------------------------1-1-1-1-1-1-1--1-1-1-1-1-1-0-0-|

Chorus

G---------------------------------------------------------------------|
D---------------------------------------------------------------------|
A--0-0-0-0-0-0-0-0-------------------0-0-0-0-0-0-0-0------------------|
E-------------------1-1-1-1-1-1-1-0-------------------1-1-1-1-1-1-0-0-|

Interlude

G---------------------------------------------------------------------|
D--5------------------------------------------------------------------|
A--3---3-3-3-3-3-3--3-3-3-3-3-3-3-0---------------------------3-3-3-3-|
E------------------------------------1-1-1-1-1-1-1-1--1-1-1-1-1-1-1-1-|

G---------------------------------------------------------------------|
D---------------------------------------------------------------------|
A--3-3-3-3-3-3-3-3--3-3-3-3-3-3-3-0-----------------------------------|
E------------------------------------1-1-1-1-1-1-1-1--1-1-1-1-1-1-1-0-|

G---------------------------------------------------------------------|
D---------------------------------------------------------------------|
A--3-3-3-3-3-3-3-3--3-3-3-3-3-3-3-0-----------------------------------|
E------------------------------------1-1-1-1-1-1-1-1--1-1-1-1-1-1-1-0-|

G---------------------------------------------------------------------|
D---------------------------------------------------------------------|
A--3-3-3-3-3-3-3-3--3-3-3-3-3-3-3-0-----------------------------------|
E------------------------------------1-1-1-1-1-1-1-1--1-1-1-1-1-1-1-0-|

Chorus 2

G----------|
D--2-------|
A--0-------|
E----------|

G-----------------------------------------------------------------------|
D-----------------------------------------------------------------------|
A-0-0-0-0-0-0-0-0-------------------0-0-0-0-0-0-0-0---------------------|
E-------------------1-1-1-1-1-1-1-0-------------------1-1-1-1-1-1-0-0---|


outro
G---------------------------------------------------------------------|
D---------------------------------------------------------------------|
A--7-7-7-7-7-7-7-7--7-7-7-7-7-7-0----3-3-3-3-5-5-5-5--7-7-7-7-8-8-8-7-|
E---------------------------------------------------------------------|

G---------------------------------------------------------------------|
D---------------------------------------------------------------------|
A--7-7-7-7-7-7-7-7--7-7-7-7-7-7-0----3-3-3-3-5-5-5-5--7-7-7-7-8-8-8-7-|
E---------------------------------------------------------------------|

G---------------------------------------------------------------------|
D---------------------------------------------------------------------|
A--7-7-7-7-7-7-7-7--7-7-7-7-7-7-0----3-3-3-3-5-5-5-5--7-7-7-7-8-8-8-7-|
E---------------------------------------------------------------------|

G-----------------------------------------------------|
D-----------------------------------------------------|
A--7-7-7-7-7-7-7-7--7--7--7--7--7--0--3---------------|
E-------------------------------------1---------------|

Order
intro
verse
chorus
intro
verse
chorus
interlude
chorus 2
outro
----------------------------------------------------------------------------
thats it the whole lot, and im pretty sure its all correct and im posotive its better 
the other bass greatest hits tab so you made a good choice by using these ones. cheers!
comments
print report bad tab
10 comments total. Showing first comments.
+2 reply
Blink182TakingB wrote on August 20 2006, 10:21 am

This is absolutely amazing why has this not been turned into a tab book. Wait a minute...yep...i've got you... you're Mark Hoppus. You crafty little mole. I, sir, have ratted you out. I bid thee good day

+1 reply
andociompa wrote on October 7 2006, 12:36 pm

alot of it is wrong one thing i saw was that the manoverboard intro is
-----------------
--------12-10-9--
---10-10---------
-----------------

+2 reply
athsmador wrote on October 24 2006, 12:14 am

im a guitarist but this looks awfully good

I want to post or [tab]
guest
You may want to rate the tab now too:
select rating
Please do not post tabs as comments. Select "correction" instead!