Oops, an error
Loading. Please wait.

Home Is Such A Lonely Place tab

version 1
version 1

Whole song

Video

28,831 views 240 this week
3 commentsread comments
1 2 3 4 5
x 29
add to favorites
×
Save as Personal and add changes to this tab that will be seen only by you. Learn more ›
×
You can save this tab as Personal to edit and correct it or add notes. All changes will be seen only by you. Learn more »
launch autoscroll
font size
0
reset
how to read this tab
guitar tuner
edit
Autoscroll
slow
fast
+/-
esc
set tempo
stop
Home is such a lonely place – Blink-182

Two ideas (capo 2 and standard tuning)

Version 1:

Capo 2

 [Verse]
e|--------|-------|-------|-------|
B|--------|-------|-------|-------|
G|--0-----|--0----|--0----|-------| 2x for intro
D|----0---|----0--|----0--|--0----| 4x for verse
A|-3---3--|-5---5-|-0---0-|-----3-|
E|--------|-------|-------|-1--1--|

[Pre Chorus]

e|------------------|------------------|
B|------------------|------------------|
G|--------0---------|--------0---------|
D|---2---0--2-0-h2--|---2---0--2-0-h2--|  2x
A|-0---0----------0-|------------------|
E|------------------|-1---1----------1-|


e|--------|-------|-------|-------|
B|--------|-------|-------|-------|
G|--0-----|--0----|--0----|-------| 
D|----0---|----0--|----0--|--0----| 
A|-3---3--|-5---5-|-0---0-|-----3-|
E|--------|-------|-------|-1--1--|

[Chorus]

e|--------|   |--------|   |--------|   |--------|      }
B|--------|   |--------|   |--------|   |--------|      }
G|--0-----|   |--0-----|   |--0-----|   |--0-----|      }
D|----0-0-|x2 |----0-0-|x2 |----2-2-|x2 |----2-2-|x2    } 2x this
A|-3---3--|   |--------|   |-0---0--|   |--------|      } line
E|--------|   |-3---3--|   |--------|   |-1---1--|      }

e|--------|   |--------|   |--------|   |--------|
B|--------|   |--------|   |--------|   |--------|
G|--0-----|   |--0-----|   |--0-----|   |--0-----|
D|----2-2-|x2 |----2-2-|x2 |----2-2-|x2 |----2-2-|x2
A|-0---0--|   |--------|   |-0---0--|   |--------|
E|--------|   |-1---1--|   |--------|   |-1---1--|

[back to intro]

(Guitar hand sliding noises seem to suggest something like this above 
 but maybe not exactly right as there is a definite slide between 2nd 
 and 3rd chord in the intro – perhaps a different tuning? Any suggestions?)

___________________________________________________________________________

Version 2: Standard Tuning

[Verse]
e|---------|--------|--------|--------|
B|---------|--------|--------|--------|
G|---2--2--|--2--2--|--2--2--|--------| 2x for intro
D|-0-----0-|-2----2-|--------|--2---0-| 4x for verse
A|---------|--------|-2----2-|--------|
E|---------|--------|--------|-3---3--|

[Pre Chorus]

e|---------------|----------------|
B|---------------|----------------|
G|-------2-------|------2---------|  x2
D|--4--2--4-2-4--|--4--2--4-2-4---|
A|-2--2--------2-|----2---------2-|
E|---------------|-3--------------|

e|---------|--------|--------|--------|
B|---------|--------|--------|--------|
G|---2--2--|--2--2--|--2--2--|--------|
D|-0-----0-|-2----2-|--------|--2---0-|
A|---------|--------|-2----2-|--------|
E|---------|--------|--------|-3---3--|

[Chorus]

e|-------|-------|-------|-------|-------|-------|-------|-------|
B|-------|-------|-------|-------|-------|-------|-------|-------|
G|--2--2-|--2--2-|--2--2-|--2--2-|--2--2-|--2--2-|--2--2-|--2--2-|
D|-0----0|-0----0|-------|-------|-------|-------|-------|-------|
A|-------|-------|-0----0|-0----0|-2----2|-2----2|-------|-------|
E|-------|-------|-------|-------|-------|-------|-3----3|-3----3|

e|-------|-------|-------|-------|
B|-------|-------|-------|-------|
G|--2--2-|--2--2-|--2--2-|--2--2-|
D|-------|-------|-------|-------|
A|-2----2|-2----2|-------|-------|
E|-------|-------|-3----3|-3----3|

________________
For KT in Canada
Suggest correction
Creating personal tab
Creating personal tab
You can edit any tab online and save it as your Personal.

You can edit, replace or remove any tab part or add personal notes – all changes will be seen only by you.

Personal tabs can be accessed anytime from any device, even offline.
Learn more »
comments
print report bad tab
3 comments total.
+1 reply
Brands99 531 Jul 03, 2016 07:43 AM

good tab, I would think the capo version of the intro is better (mainly because in the song you can here Skiba sliding up to the 5th fret)

+2 reply
micah3639 77 Jul 04, 2016 07:36 PM

This isn't accurate. You have the basic notes right, but Matt plays a few extra notes in there too. It's hard to here because of synth and piano and drums and singing and what not, but there are actually 4 different notes per chord picked.

guest
You may want to rate the tab now too:
select rating
Wanna post a correction for this tab? Suggest correction