Oops, an error
Loading. Please wait.

Home Is Such A Lonely Place chords

version 3
version 3

Whole song

Video

2,620 views 15 this week
no commentswrite comment
1 2 3 4 5
x 6
add to favorites
×
Save as Personal and add changes to this tab that will be seen only by you. Learn more ›
×
You can save this tab as Personal to edit and correct it or add notes. All changes will be seen only by you. Learn more »
launch autoscroll
font size
0
reset
transpose
0
reset
simplify chords
display chords
guitar tuner
edit
Autoscroll
slow
fast
+/-
esc
set tempo
stop
Strumming
There is no strumming pattern for this song yet. and get +5 IQ
Home Is Such A Lonely Place  - Blink 182:


Capo 3:


  Cadd9   D/F#   Em7     G
E|--3------3------3------3-------------------------|
B|--3------3------3------3-------------------------|
G|--0------2------0------0-------------------------|
D|--2------0------2------0-------------------------|
A|--3------0------2------2-------------------------|
E|--0------2------0------3-------------------------|


[Intro, verse, chorus, instrumental, bridge picking] 
   G             D/F#          Em7           Cadd9
E|----------------------------------------------------------------------------|
B|----------------------------------------------------------------------------|
G|---0-------------2-------------0-------------0------------------------------|
D|-----0-------------0-------------0-------------2----------------------------|
A|-------2-------------0-------2-----2-------3-----3--------------------------|
E|-3-------------2------------------------------------------------------------|


[Pre-chorus picking]
   Em7                 Cadd9
E|----------------------------------------------------------------------------|
B|----------------------------------------------------------------------------|
G|---------0----------------------0-------------------------------------------|
D|---2---2---2---2----------2---2---2---2-------------------------------------|
A|-2---2-------2----------3---3-------3---------------------------------------|
E|----------------------------------------------------------------------------|


[Intro]
G  D/F#  Em7  Cadd9   x2


[Verse 1]
      G       D/F#        Em7    Cadd9
We're falling faster than we can fly
   G        D/F#         Em7    Cadd9
Forgotten seconds out on Sunset Drive
      G       D/F#   Em7
And I hold on tight
    Cadd9         G        D/F#   Em7  Cadd9
But not enough to hold you back


[Pre-chorus]
                  Em7
It feels like the moon 
   Cadd9                             Em7
Is spinning off into outer space without you
     Cadd9                           G       D/F#  Em7  Cadd9
This room is such a lonely place without you


[Chorus]
G                     D/F#
 I wish that we could save today
Em7                  Cadd9
 But I know we can't stay the same
G                   D/F#
 And I keep pushing you away
Em7             Cadd9              Em7
 Don't wait for me, don't wait for me
 Cadd9                           Em7
 Home is such a lonely place without you
 Cadd9
 Home is such a lonely place


[Instrumental]
G  D/F#  Em7  Cadd9   


[Verse 2]
  G        D/F#          Em7      Cadd9
I love the lightning but hate the rain
  G        D/F#            Em7   Cadd9
Tomorrow's frightening but not today
             G         D/F#  Em7
Wish I could slow down time
    Cadd9         G        D/F#  Em7  Cadd9
But not enough to slow you down
                Em7
I feel like the moon
    Cadd9                            Em7
Is spinning off into outer space without you
    Cadd9                       G
The universe an empty place without you


[Chorus]
G                     D/F#
 I wish that we could save today
Em7                  Cadd9
 But I know we can't stay the same
G                   D/F#
 And I keep pushing you away
Em7             Cadd9              Em7
 Don't wait for me, don't wait for me
 Cadd9                           Em7
 Home is such a lonely place without you
 Cadd9
 Home is such a lonely place


[Instrumental]
G D/F# Em7 Cadd9 


[Bridge]
      G       D/F#        Em7    Cadd9      
We're falling faster than we can fly
   G      D/F#           Em7    Cadd9
Forgotten seconds out on Sunset Drive


[Chorus]
G*                    D/F#*
 I wish that we could save today
Em7*                 Cadd9*
 But I know we can't stay the same
G                   D/F#
 And I keep pushing you away
Em7             Cadd9              Em7
 Don't wait for me, don't wait for me
G                     D/F#
 I wish that we could save today
Em7                  Cadd9
 But I know we can't stay the same
G                   D/F#
 And I keep pushing you away
Em7             Cadd9              Em7
 Don't wait for me, don't wait for me
 Cadd9                           Em7
 Home is such a lonely place without you
 Cadd9                 G
 Home is such a lonely place
 G
 Home is such a lonely place

            
            
Suggest correction
Creating personal tab
Creating personal tab
You can edit any tab online and save it as your Personal.

You can edit, replace or remove any tab part or add personal notes – all changes will be seen only by you.

Personal tabs can be accessed anytime from any device, even offline.
Learn more »
comments
print report bad tab
guest
You may want to rate the tab now too:
select rating
Wanna post a correction for this tab? Suggest correction