Oops, an error
Loading. Please wait.

I Miss You Chords

8,907 views 120 this week
no commentswrite comment
1 2 3 4 5
excellent!
x 4
add to favorites
launch autoscroll
font size
0
reset
transpose
0
reset
- display chords -
guitar tuner
Tab Pro tools
  • play this tab
  • loop segment
  • change instrument
  • show fretboard
  • metronome
×
Best way to learn
"I Miss You"
Autoscroll
slow
fast
+/-
esc
set tempo
stop
Contributor
I Miss You

Key: B

Chords used:
B         x24442
C#m       x46654
Ebm       x68876
F#        244322
E         022100
F#/Bb     x143xx
Abm       466444


Intro: B  F#/Bb  Abm  F#   x3

Guitar 2:
e|--------|
B|--------|
G|-4/8--8-|
D|-4/8--8-| x12
A|-2/6--6-|
E|--------|


Piano:
    B    F#/Bb    Abm   F#
e|---2-|---2--4-|---2-|---2-|
B|-0---|--------|-0---|-----|
G|-----|-3------|-----|-3---|
D|-----|--------|-----|-----|
A|-----|--------|-----|-----|
E|-----|--------|-----|-----|


(I miss you, miss you)


Verse 1: Mark
   B            F#/Bb
Hello there the angel
from my nightmare
    Abm
The shadow in the
                  F#
background of the morgue
                 B
The unsuspecting victim
   F#/Bb
of darkness in the valley
       Abm
We can live like Jack
                F#
and Sally if we want
Where you can
       B
always find me
And we'll have
F#/Bb
Halloween on Christmas
Abm
And in the night we'll
                F#
wish this never ends
                      B   C#m Ebm F# E
We'll wish this never ends
                      B C#m Ebm F# E
(I miss you, miss you)
                      B
(I miss you, miss you)


Verse 2: Tom
      B
Where are you and
F#/Bb
I'm so sorry
  Abm
I cannot sleep I
               F#
cannot dream tonight
                    B
I need somebody and always
     F#/Bb
This sick strange darkness
      Abm
Comes creeping on so
               F#
haunting every time
                  B
And as I stared I counted
    F#/Bb
The webs from all
the spiders
Abm
Catching things and
               F#
eating their insides
Like indecision to
B            F#/Bb
call you And hear your
voice of treason
     Abm
Will you come home and
                 F#
stop this pain tonight
Stop this pain tonight


Chorus: Tom, Mark sings the parenthesis
B           C#m
Don't waste your time
Ebm   F#
on me you're already
    E
The voice inside my
head (I miss you, miss you)
(Repeat)


Interlude: Abm F#/Bb B F#/Bb  x2

Guitar 2:
e|--------|
B|--------|
G|-4/8--8-|
D|-4/8--8-| x12
A|-2/6--6-|
E|--------|


(Repeat Chorus twice)


Outro: Mark
                  B   C#m Ebm F# E
(I miss you, miss you)
                  B   C#m Ebm F# E
(I miss you, miss you)
                  B   C#m Ebm F# E
(I miss you, miss you)
                  B   C#m Ebm F# E
(I miss you, miss you)


Piano:
E|-14-14-14-14-14-14-14-14-|
B|-------------------------|
G|-------------------------|
D|-------------------------| x4
A|-------------------------|
E|-------------------------|

e|-14-11--14-11--14-11--14-11--14-11--14-12--14-12--11-----|
B|------------------------------------------------------12-|
G|---------------------------------------------------------|
D|---------------------------------------------------------| x2
A|---------------------------------------------------------|
E|---------------------------------------------------------|

e|-24--26-24--23-----|
B|----------------24-|
G|-------------------|
D|-------------------|
A|-------------------|
E|-------------------|
comments
print report bad tab
I want to post or [tab]
guest
You may want to rate the tab now too:
select rating
Please do not post tabs as comments. Select "correction" instead!