Oops, an error
Loading. Please wait.

I Miss You Bass Tab

version 3
4,173 views 3 this week
10 commentsread comments
1 2 3 4 5
worth learning
x 11
add to favorites
launch autoscroll
font size
0
reset
guitar tuner
Tab Pro tools
  • play this tab
  • loop segment
  • change instrument
  • show fretboard
  • metronome
×
Best way to learn
"I Miss You"
Autoscroll
slow
fast
+/-
esc
set tempo
stop
This is the intro/verse
G------------------------------
D------------------------------
A---2-2---1-1----------1-1-----
E-0-----2-----2-4-4--2---------

Chorus
G------------------------------
D------------------------------
A-2--4--6--9--7(let ring)------
E------------------------------

OR

2nd Option for Chorus (the above way is correct, but this can sound more appealing)
G------------------------------
D------------------------------
A-2--4--6--9--7--6--4--2-------
E------------------------------

Bridge
G------------------------------
D------------------------------
A----------1-1----2-2----1-1---
E-2-4-4--2------0------2-------

and then you go back to the chorus
*Keep in mind that this song is played with an upright bass so if you can't get
the tone right when your playing it with an electric that why.
any questions?  LTJ1228@yahoo.com
comments
print report bad tab
10 comments total. Showing first comments.
0 reply
BassPlayer18269 wrote on December 2 2003, 12:00 am

its simply a hammer on with a capo on the second fret-
all notes relative to the capo
Verse
G------------------------------------
D------------------------------------
A------------------------------------
E--0h5-5----0h4-4----0h2-2----0h4-4--

Chorus
G---------------------------------------------------------------------
D---------------------------------------------------------------------
A--0-0-0-0-0-0-2-2-2-2-2-2-4-4-4-4-7-7-7-7-7-7-5-5-5-5-5-5-5-5-5-5-5--
E---------------------------------------------------------------------
figure out the strumming for the shours yourself, thoes are just the notes
and its not a stand up bass its an acoustic bass gutiar

0 reply
BassPlayer18269 wrote on December 2 2003, 12:00 am

its simply a hammer on with a capo on the second fret-
all notes relative to the capo
Verse
G------------------------------------
D------------------------------------
A------------------------------------
E--0h5-5----0h4-4----0h2-2----0h4-4--

Chorus
G---------------------------------------------------------------------
D---------------------------------------------------------------------
A--0-0-0-0-0-0-2-2-2-2-2-2-4-4-4-4-7-7-7-7-7-7-5-5-5-5-5-5-5-5-5-5-5--
E---------------------------------------------------------------------
figure out the strumming for the shours yourself, thoes are just the notes
and its not a stand up bass its an acoustic bass gutiar

0 reply
boxcarblink41 wrote on December 7 2003, 12:00 am

yea it is a stand up bass! it says so in the booklet that comes with the album! go buy it!

I want to post or [tab]
guest
You may want to rate the tab now too:
select rating
Please do not post tabs as comments. Select "correction" instead!