Oops, an error
Loading. Please wait.

I Miss You Bass Tab

version 5
28,319 views 3 this week
5 commentsread comments
1 2 3 4 5
accurate
x 10
add to favorites
launch autoscroll
font size
0
reset
guitar tuner
Tab Pro tools
  • play this tab
  • loop segment
  • change instrument
  • show fretboard
  • metronome
×
Best way to learn
"I Miss You"
Autoscroll
slow
fast
+/-
esc
set tempo
stop
Contributor
I MISS YOU 
As recorded by Blink-182


Gtr I (E A D G) - 'BASS'
Gtr II (E A D G B E) - 'piano'


 Intro
  Moderately Slow Rock Q=108
 4/4
  Gtr I
  Wx2
|--------|
|--------|
|--------|
|--------|


    e H.      +S  S   e H.      +S  S   e H.      +S  S   e H.      +S  S  3x
||------------------|-----------------|-----------------|------------------||
||o-----------------|-----------------|-----------------|-----------------o||
||o-----------------|-----------------|-----------------|-----------------o||
||--7-7-------(7)-7-|-6-6-------(6)-6-|-4-4-------(4)-4-|-6-6-------(6)-6--||


   Verse
    e H.      +S  S   e H.      +S  S   e H.      +S  S   e H.      +S  S  3x
||------------------|-----------------|-----------------|------------------||
||o-----------------|-----------------|-----------------|-----------------o||
||o-----------------|-----------------|-----------------|-----------------o||
||--7-7-------(7)-7-|-6-6-------(6)-6-|-4-4-------(4)-4-|-6-6-------(6)-6--||


   Pre-Verse
    E S S S S E E S S S S E   E S S S S E E S S S S E
||--------------------------|-------------------------|
||o-------------------------|-1-1-1-1-1-1-4-4-4-4-4-4-|
||o-2-2-2-2-2-2-4-4-4-4-4-4-|-------------------------|
||--------------------------|-------------------------|


  E S S S S E E S S S S E   E S S S S E E S S S S E
|-------------------------|--------------------------||
|-2-2-2-2-2-2-2-2-2-2-2-2-|-2-2-2-2-2-2-2-2-2-2-2-2-o||
|-------------------------|-------------------------o||
|-------------------------|--------------------------||


  W          +W
|----------|--------|
|----------|--------|
|-2--------|-(2)----|
|----------|--------|


   Verse
    e H.      +S  S   e H.      +S  S   e H.      +S  S   e H.      +S  S  4x
||------------------|-----------------|-----------------|------------------||
||o-----------------|-----------------|-----------------|-----------------o||
||o-----------------|-----------------|-----------------|-----------------o||
||--7-7-------(7)-7-|-6-6-------(6)-6-|-4-4-------(4)-4-|-6-6-------(6)-6--||


   Chorus
    E S S S S E E S S S S E   E S S S S E E S S S S E
||--------------------------|-------------------------|
||o-------------------------|-1-1-1-1-1-1-4-4-4-4-4-4-|
||o-2-2-2-2-2-2-4-4-4-4-4-4-|-------------------------|
||--------------------------|-------------------------|


  E S S S S E E S S S S E   E S S S S E E S S S S E
|-------------------------|--------------------------||
|-2-2-2-2-2-2-2-2-2-2-2-2-|-2-2-2-2-2-2-2-2-2-2-2-2-o||
|-------------------------|-------------------------o||
|-------------------------|--------------------------||


 Interlude
  W          +H..       +S  S   e H.      +S  S   e H.      +S  S
|----------|------------------|-----------------|-------------------|
|----------|------------------|-----------------|-------------------|
|-2--------|-(2)--------(2)---|-----------------|-------------------|
|----------|----------------6-|-4-4-------(4)-4-|-6-6-------(6)-6---|


  e H.      +S  S   e H.      +S  S   e H.      +S  S
|-----------------|-----------------|-----------------|
|-----------------|-----------------|-----------------|
|-----------------|-----------------|-----------------|
|-7-7-------(7)-7-|-6-6-------(6)-6-|-4-4-------(4)-4-|


  e H.      +S  S   e H.      +S  S   e H.      +S  S
|-----------------|-----------------|-----------------|
|-----------------|-----------------|-----------------|
|-----------------|-----------------|-----------------|
|-6-6-------(6)-6-|-7-7-------(7)-7-|-6-6-------(6)-6-|


   Chorus
    E S S S S E E S S S S E   E S S S S E E S S S S E
||--------------------------|-------------------------|
||o-------------------------|-1-1-1-1-1-1-4-4-4-4-4-4-|
||o-2-2-2-2-2-2-4-4-4-4-4-4-|-------------------------|
||--------------------------|-------------------------|


  E S S S S E E S S S S E   E S S S S E E S S S S E  4x
|-------------------------|--------------------------||
|-2-2-2-2-2-2-2-2-2-2-2-2-|-2-2-2-2-2-2-2-2-2-2-2-2-o||
|-------------------------|-------------------------o||
|-------------------------|--------------------------||


   Outro
     E S S  S S  E  E S S  S S E    E S S  S S E  E  S S  S S  E
||-------------------------------|-------------------------------|
||o------------------------------|--1-1-1--1-1-1--4--4-4--4-4--4-|
||o--2-2-2--2-2--2--4-4-4--4-4-4-|-------------------------------|
||-------------------------------|-------------------------------|
|
|   Gtr II
|    Q      E    E  Q      Q        Q      Q      E  E    E    E
||-------------------------------|-------------------------------|
||o-19-----19------19-----19-----|-19-----19-----19------19------|
||--20----------20-20-----20-----|-20-----20--------20--------20-|
||-------------------------------|-------------------------------|
||o------------------------------|-------------------------------|
||-------------------------------|-------------------------------|


   E S S  S S  E  E S S  S S E    E S S  S S E  E S S  S S E
|------------------------------|------------------------------||
|--2-2-2--2-2--2--2-2-2--2-2-2-|--2-2-2--2-2-2--2-2-2--2-2-2-o||
|------------------------------|-----------------------------o||
|------------------------------|------------------------------||
|
|  Q      E    E  Q      Q        Q      Q      Q      Q
|------------------------------|------------------------------||
|-19-----19------19-----19-----|-19-----19-----19-----19-----o||
|-20----------20-20-----20-----|-20-----20-----20-----20------||
|------------------------------|------------------------------||
|------------------------------|-----------------------------o||
|------------------------------|------------------------------||


   E  S S S S  E  E S S  S S  E     E   S S  S S E  E  S S S S  E
|-------------------------------|---------------------------------|
|-------------------------------|---1---1-1--1-1-1--4--4-4-4-4--4-|
|--2--2-2-2-2--2--4-4-4--4-4--4-|---------------------------------|
|-------------------------------|---------------------------------|
|
|  E  Q        E  Q      E    E    +E   E    Q      E  Q        E
|-14----------14--------14------|------14----------14----------14-|
|----16----------16----------16-|-(16)------16--------16----------|
|-------------------------------|---------------------------------|
|-------------------------------|---------------------------------|
|-------------------------------|---------------------------------|
|-------------------------------|---------------------------------|


   E S S  S S  E E  S S  S S E     E  S S S S E E S S S S E
|------------------------------|-----------------------------|
|--2-2-2--2-2--2-2--2-2--2-2-2-|---2--2-2-2-2-2-2-2-2-2-2-2--|
|------------------------------|-----------------------------|
|------------------------------|-----------------------------|
|
|  Q      E    Q    E    Q        +W
|--------14--------11----------|-----------------------------|
|-17----------17--------12-----|-(12)------------------------|
|------------------------------|-----------------------------|
|------------------------------|-----------------------------|
|------------------------------|-----------------------------|
|------------------------------|-----------------------------|


   E  S S S S  E  E S S  S S  E     E   S S  S S E  E  S S S S  E
|-------------------------------|---------------------------------|
|-------------------------------|---1---1-1--1-1-1--4--4-4-4-4--4-|
|--2--2-2-2-2--2--4-4-4--4-4--4-|---------------------------------|
|-------------------------------|---------------------------------|
|
|  E  Q        E  Q      E    E    +E   E    Q      E  Q        E
|-14----------14--------14------|------14----------14----------14-|
|----16----------16----------16-|-(16)------16--------16----------|
|-------------------------------|---------------------------------|
|-------------------------------|---------------------------------|
|-------------------------------|---------------------------------|
|-------------------------------|---------------------------------|


   E S S  S S  E E  S S  S S E     E  S S S S E E S S S S E
|------------------------------|-----------------------------*|
|--2-2-2--2-2--2-2--2-2--2-2-2-|---2--2-2-2-2-2-2-2-2-2-2-2--*|
|------------------------------|-----------------------------*|
|------------------------------|-----------------------------*|
|
|  Q      E    Q    E    Q        +W
|--------14--------11----------|-----------------------------*|
|-17----------17--------12-----|-(12)------------------------*|
|------------------------------|-----------------------------*|
|------------------------------|-----------------------------*|
|------------------------------|-----------------------------*|
|------------------------------|-----------------------------*|



comments
print report bad tab
5 comments total. Showing first comments.
-1 reply
HH_Emo_666 wrote on September 15 2007, 09:28 pm

wrong .. its played with a capo on 2nd fret

-1 reply
njc69 wrote on September 16 2007, 10:57 am

well play it like this and listen to how it sounds then tell me if its wrong fricken emo

0 reply
guitar_gringo_ wrote on September 22 2007, 10:55 am

check out guitar_gringo 's profile....people say he rocks his face off,,,and hes made the craziest tab,,,ever!

I want to post or [tab]
guest
You may want to rate the tab now too:
select rating
Please do not post tabs as comments. Select "correction" instead!