Oops, an error
Loading. Please wait.

I Miss You Bass Tab

version 6
3,018 views 3 this week
no commentswrite comment
1 2 3 4 5
accurate
x 3
add to favorites
launch autoscroll
font size
0
reset
guitar tuner
Tab Pro tools
  • play this tab
  • loop segment
  • change instrument
  • show fretboard
  • metronome
×
Best way to learn
"I Miss You"
Autoscroll
slow
fast
+/-
esc
set tempo
stop
Contributor
Difficulty
novice
-------------------------------------------------------------------------------
			     i miss you - Blink 182
-------------------------------------------------------------------------------

Tabbed By : master cheese
e-mail:

Tuning: e a d g standard

     There is two parts to this song the main verse and the chorus both are very easy

       (drum intro...)            (main verse)          (repeat about 6x...)
G|-----------------------------------------------------------------------------|
D|-----------------------------------------------------------------------------|
A|-----------------------------------------------------------------------------|
E|-----------------5-77--5-66--5-44--5-66--------------------------------------|
       (then chorus)
                                                      (3x..)
G|--------------------3--4-------------------------------------------------------|
D|--------------4--6-------------------------------------------------------------|
A|--------4--6-------------------------------------------------------------------|
E|-----7-------------------------------------------------------------------------|
                         i miss you i miss you...

     (a little rest then back to the main verse)       (4x)
G|-----------------------------------------------------------------------------|
D|-----------------------------------------------------------------------------|
A|-----------------------------------------------------------------------------|
E|---------------5--77--5-66--5-44--5-66---------------------------------------|
               where are you...

  (chorus while he sings)              (2x)
G|--------------------3--4-------------------------------------------------------|
D|--------------4--6-------------------------------------------------------------|
A|--------4--6-------------------------------------------------------------------|
E|-----7-------------------------------------------------------------------------|
       Dont wast your time on me.....

  (another small rest and then the main verse but in a different order)
G|-----------------------------------------------------------------------------|
D|-----------------------------------------------------------------------------|
A|-----------------------------------------------------------------------------|
E|-------5-44--5-66--5-77--5-66--5-44--5-66--5-77--5-66------------------------|

  (back to chorus while he sings)      (4x)
G|--------------------3--4-------------------------------------------------------|
D|--------------4--6-------------------------------------------------------------|
A|--------4--6-------------------------------------------------------------------|
E|-----7-------------------------------------------------------------------------|
      Dont wast your time on me....
(The outro is the same as the chorus only with out words so just keep playing it 
till the song is over)



this is my first tab and im glad to be a part of this awesome website im %99 this is right.
if its not don't message me just make a better one.

| /  slide up
| \  slide down
| h  hammer-on
| p  pull-off
| ~  vibrato
| +  harmonic
| x  Mute note
===============================================================================
comments
We did not receive enough feedback on this tab! Please rate:
print report bad tab
1 2 3 4 5
I want to post or [tab]
guest
You may want to rate the tab now too:
select rating
Please do not post tabs as comments. Select "correction" instead!