Oops, an error
Loading. Please wait.

I Miss You Chords

26,418 views 45 this week
no commentswrite comment
1 2 3 4 5
accurate
x 17
add to favorites
launch autoscroll
font size
0
reset
transpose
0
reset
simplify chords
- display chords -
guitar tuner
Tab Pro tools
  • play this tab
  • loop segment
  • change instrument
  • show fretboard
  • metronome
×
Best way to learn
"I Miss You"
Autoscroll
slow
fast
+/-
esc
set tempo
stop
Contributor
Blink 182 - I Miss You

Like Our Band On Facebook! :) 
www.Facebook.com/Moment44

And Check Us Out On Youtube! :)
www.youtube.com/Moment44

Don't Forget Twitter! :)
www.Twitter.com/Moment_44

www.Moment44.org

Notes:
 - x = dead note  h = hammer on

 -VERY IMPORTANT, the intro is the strumming 
  pattern for the verses

 -The way i play it for the verses is i always
  keep my ring finger down on the 3rd fret B
  string and use my index and pinky to hammer on
  the 2 on the A string and the 4 on the G string

 -In the recorded version there's two measures after 
  each chorus of just drums, in my band we either play
  two measures of G or we just skip those measures and
  straight into the next part.
  
  -^Same thing applies for the Interlude

 -Tab & Chords are according to
  capo 4th fret

Chords  - E A D G B E
G       - 3 x 0 0 3 x
D/F#    - 2 x 0 2 3 x
Em7     - 0 2 2 0 3 x
A7sus4  - x 0 x 0 3 3
C       - x 3 2 0 1 x
CMb5    - x 3 4 x 1 x
C5      - x 3 x 0 1 x
G/B     - x 2 x 0 3 3
Dsus4   - x(5)0 0 3 x 


Capo 4th
Intro: (strumming pattern for verses)
  G                     D/F#               Em7                D/F#           
E|---------------------|------------------|------------------|------------------|
B|---3-3-3--3-3-3-3-3--|-3-3-3--3-3-3-3-3-|-3-3-3--3-3-3-3-3-|-3-3-3--3---------|
G|---0-0-0--0h4-4-4-4--|-2-2-0--0h4-4-4-4-|-0-0-0--0h4-4-4-4-|-2-2-0--0h2-4-4-4-|
D|---0-0-0--0-x-x-x-x--|-0-0-0--0-x-x-x-x-|-2-2-0--0-x-x-x-x-|-0-0-0--0-x-x-x-x-| x3
A|---x-x-0--0h2-2-2-2--|-x-x-0--0h2-2-2-2-|-2-2-0--0h2-2-2-2-|-x-x-0--0h2-2-2-2-|
E|---3-3---------------|-2-2--------------|-0-0--------------|-2-2--------------|
 
Verse 1:
G                D/F#
Hello there, the angel from my nightmare
      Em7                           D/F#
The shadow in the background of the morgue
                 G         D/F#
The unsuspecting victim of darkness in the valley
       Em7                            D/F#
We can live like Jack and Sally if we want
                     G
Where you can always find me
           D/F#
We'll have Halloween on Christmas
    Em7                                    D/F#
And in the night we'll wish this never ends
                           G
We'll wish this never ends
 
Interlude:
G - A7sus4 - G/B - Dsus4 | C - CMb5 - C5 |
                          (I miss you)          X2
Verse 2:
      G           D/F#
Where are you and I'm so sorry
  Em7                           D/F#
I cannot sleep I cannot dream tonight
                    G           D/F#
I need somebody and always This sick strange darkness
      Em7                           D/F#
Comes creeping on so haunting every time
                  G           D/F#
And as I stared I counted the Webs from all the spiders
Em7                                D/F#
Catching things and eating their insides
                   G
Like indecision to call you
    D/F#
and hear your voice of treason
     Em7                                 D/F#
Will you come home and stop this pain to-night
               G
Stop this pain tonight

Chorus:
G                A7sus4      G/B        Dsus4
Don't waste your time  on   me you're already
    C     CMb5      C5
The voice inside my head (I miss you, miss you)
G                A7sus4      G/B        Dsus4
Don't waste your time  on   me you're already
    C     CMb5      C5
The voice inside my head (I miss you, miss you)
 
Solo:
  G                     D/F#               Em7                D/F#  
E|---------------------|------------------|------------------|------------------|
B|---3-3-3--3-3-3-3-3--|-3-3-3--3-3-3-3-3-|-3-3-3--3-3-3-3-3-|-3-3-3--3---------|
G|---0-0-0--0h4-4-4-4--|-2-2-0--0h4-4-4-4-|-0-0-0--0h4-4-4-4-|-2-2-0--0h2-4-4-4-|
D|---0-0-0--0-x-x-x-x--|-0-0-0--0-x-x-x-x-|-2-2-0--0-x-x-x-x-|-0-0-0--0-x-x-x-x-| x2
A|---x-x-0--0h2-2-2-2--|-x-x-0--0h2-2-2-2-|-2-2-0--0h2-2-2-2-|-x-x-0--0h2-2-2-2-|
E|---3-3---------------|-2-2--------------|-0-0--------------|-2-2--------------|
 
Chorus:
G                A7sus4      G/B        Dsus4
Don't waste your time  on   me you're already
    C     CMb5      C5
The voice inside my head (I miss you, miss you)
G                A7sus4      G/B        Dsus4
Don't waste your time  on   me you're already
    C     CMb5      C5
The voice inside my head (I miss you, miss you)
G                A7sus4      G/B        Dsus4
Don't waste your time  on   me you're already
    C     CMb5      C5
The voice inside my head (I miss you, miss you)
G                A7sus4      G/B        Dsus4
Don't waste your time  on   me you're already
    C     CMb5      C5
The voice inside my head (I miss you, miss you)
 
Outro:
  G                     D/F#               Em7                D/F#  
E|---------------------|------------------|------------------|------------------|
B|---3-3-3--3-3-3-3-3--|-3-3-3--3-3-3-3-3-|-3-3-3--3-3-3-3-3-|-3-3-3--3---------|
G|---0-0-0--0h4-4-4-4--|-2-2-0--0h4-4-4-4-|-0-0-0--0h4-4-4-4-|-2-2-0--0h2-4-4-4-|
D|---0-0-0--0-x-x-x-x--|-0-0-0--0-x-x-x-x-|-2-2-0--0-x-x-x-x-|-0-0-0--0-x-x-x-x-| x2
A|---x-x-0--0h2-2-2-2--|-x-x-0--0h2-2-2-2-|-2-2-0--0h2-2-2-2-|-x-x-0--0h2-2-2-2-|
E|---3-3---------------|-2-2--------------|-0-0--------------|-2-2--------------|
comments
print report bad tab
I want to post or [tab]
guest
You may want to rate the tab now too:
select rating
Please do not post tabs as comments. Select "correction" instead!