Oops, an error
Loading. Please wait.
We have an official I Miss You tab made by UG professional guitarists. Check out the tab »
×

I Miss You tab

version 6
version 6

Whole song

Video

131,660 views 36 this week
18 commentsread comments
1 2 3 4 5
x 27
add to favorites
×
Save as Personal and add changes to this tab that will be seen only by you. Learn more ›
×
You can save this tab as Personal to edit and correct it or add notes. All changes will be seen only by you. Learn more »
launch autoscroll
font size
0
reset
how to read this tab
guitar tuner
backing track
0:00
0:00
edit
Autoscroll
slow
fast
+/-
esc
set tempo
stop
Author
OK BEFORE YOU POST CRAP ABOUT THIS "NOT BEING ADVANCED" 
ITS NOT!!! THE "BEGINNER, INTERMEDIATE, AND ADVANCED" 
DIFFICULTY MEANS HOW MUCH THE EXPERIENCE THE TABBER
THINKS HE/SHE HAS. NOT HOW HARD THE TAB IS!!!
IF YOU DONT BELIEVE ME JUST ASK A MOD.
thank you...

/***update***/
ok guys, i just posted a video on youtube to go along
with the tab just in case there are questions. its pretty
basic but its there if you need it.
heres the url
http://youtube.com/watch?v=_vM8DSsmLXM

Artist:Blink 182
Song:I Miss You
Album:Blink 182
Tabbed by:fret13
Tuning:Standard w. capo on 2nd fret

there really is a capo used on this song. watch
them play it live here:
http://youtube.com/watch?v=cnBBsggBAxE

|--|
|--|
|--|
|--|
|--|
|--|

Intro Verse
|-------------------------------------------------------|x6
|-------------------------------------------------------|
|-------------------------------------------------------|
|-7/11-11-11---7/11-11-11---7/11-11-11---7/11-11-11-----|
|-0--0--0--0---0--0--0--0---0--0--0--0---0--0--0--0-(0)-|
|-5/-9--9--9---5/-9--9--9---5/-9--9--9---5/-9--9--9-(0)-|

Chorus
|--------------------------------------------------------|
|--------------------------------------------------------|
|-6--6-6-6--6-6-6--6-6-6--6-6-6--6-6-6--6-6-6--6-6/9-9-9-|
|-7--7-7-7--7-7-7--7-7-7--7-7-7--7-7-7--7-7-7--7-7/9-9-9-|
|-0--0-0-0--0-0-0--0-0-0--0-0-0--0-0-0--0-0-0--0-0-0-0-0-|
|-5--5-5-5--5-5-5--5-5-5--5-5-5--5-5-5--5-5-5--5-5/7-7-7-|

|-------------------------------------------|
|-------------------------------------------|
|-11---11-11-11---11-11-11---11-11----------|
|--0----0--0--0----0--0--0----0--0-14-14-14-|
|--0----0--0--0----0--0--0----0--0--0--0--0-|
|-10---10-10-10---10-10-10---10-10/12-12-12-|

|------------------------------------------------|
|------------------------------------------------|
|-11---11-11-11---11-11-11---11-11-11---11-11-11-|
|--0----0--0--0----0--0--0----0--0--0----0--0--0-|
|--0----0--0--0----0--0--0----0--0--0----0--0--0-|
|-10---10-10-10---10-10-10---10-10-10---10-10-10-|

|--------------------------------------------------------|
|--------------------------------------------------------|
|-6--6-6-6--6-6-6--6-6-6--6-6-6--6-6-6--6-6-6--6-6/9-9-9-|
|-7--7-7-7--7-7-7--7-7-7--7-7-7--7-7-7--7-7-7--7-7/9-9-9-|
|-0--0-0-0--0-0-0--0-0-0--0-0-0--0-0-0--0-0-0--0-0-0-0-0-|
|-5--5-5-5--5-5-5--5-5-5--5-5-5--5-5-5--5-5-5--5-5/7-7-7-|

|-------------------------------------------|
|-------------------------------------------|
|-11---11-11-11---11-11-11---11-11----------|
|--0----0--0--0----0--0--0----0--0-14-14-14-|
|--0----0--0--0----0--0--0----0--0--0--0--0-|
|-10---10-10-10---10-10-10---10-10/12-12-12-|

|------------------------------------------------|
|------------------------------------------------|
|-11---11-11-11---11-11-11---11-11-11---11-11-11-|
|--0----0--0--0----0--0--0----0--0--0----0--0--0-|
|--0----0--0--0----0--0--0----0--0--0----0--0--0-|
|-10---10-10-10---10-10-10---10-10-10---10-10-10-|

Verse
|-------------------------------------------------------|x4
|-------------------------------------------------------|
|-------------------------------------------------------|
|-7/11-11-11---7/11-11-11---7/11-11-11---7/11-11-11-----|
|-0--0--0--0---0--0--0--0---0--0--0--0---0--0--0--0-(0)-|
|-5/-9--9--9---5/-9--9--9---5/-9--9--9---5/-9--9--9-(0)-|

Chorus
|--------------------------------------------------------|
|--------------------------------------------------------|
|-6--6-6-6--6-6-6--6-6-6--6-6-6--6-6-6--6-6-6--6-6/9-9-9-|
|-7--7-7-7--7-7-7--7-7-7--7-7-7--7-7-7--7-7-7--7-7/9-9-9-|
|-0--0-0-0--0-0-0--0-0-0--0-0-0--0-0-0--0-0-0--0-0-0-0-0-|
|-5--5-5-5--5-5-5--5-5-5--5-5-5--5-5-5--5-5-5--5-5/7-7-7-|

|-------------------------------------------|
|-------------------------------------------|
|-11---11-11-11---11-11-11---11-11----------|
|--0----0--0--0----0--0--0----0--0-14-14-14-|
|--0----0--0--0----0--0--0----0--0--0--0--0-|
|-10---10-10-10---10-10-10---10-10/12-12-12-|

|------------------------------------------------|
|------------------------------------------------|
|-11---11-11-11---11-11-11---11-11-11---11-11-11-|
|--0----0--0--0----0--0--0----0--0--0----0--0--0-|
|--0----0--0--0----0--0--0----0--0--0----0--0--0-|
|-10---10-10-10---10-10-10---10-10-10---10-10-10-|

|--------------------------------------------------------|
|--------------------------------------------------------|
|-6--6-6-6--6-6-6--6-6-6--6-6-6--6-6-6--6-6-6--6-6/9-9-9-|
|-7--7-7-7--7-7-7--7-7-7--7-7-7--7-7-7--7-7-7--7-7/9-9-9-|
|-0--0-0-0--0-0-0--0-0-0--0-0-0--0-0-0--0-0-0--0-0-0-0-0-|
|-5--5-5-5--5-5-5--5-5-5--5-5-5--5-5-5--5-5-5--5-5/7-7-7-|

|-------------------------------------------|
|-------------------------------------------|
|-11---11-11-11---11-11-11---11-11----------|
|--0----0--0--0----0--0--0----0--0-14-14-14-|
|--0----0--0--0----0--0--0----0--0--0--0--0-|
|-10---10-10-10---10-10-10---10-10/12-12-12-|

|------------------------------------------------|
|------------------------------------------------|
|-11---11-11-11---11-11-11---11-11-11---11-11-11-|
|--0----0--0--0----0--0--0----0--0--0----0--0--0-|
|--0----0--0--0----0--0--0----0--0--0----0--0--0-|
|-10---10-10-10---10-10-10---10-10-10---10-10-10-|

Bridge
|-------------------------------------------------------|x4
|-------------------------------------------------------|
|-------------------------------------------------------|
|-7/11-11-11---7/11-11-11---7/11-11-11---7/11-11-11-----|
|-0--0--0--0---0--0--0--0---0--0--0--0---0--0--0--0-(0)-|
|-5/-9--9--9---5/-9--9--9---5/-9--9--9---5/-9--9--9-(0)-|

Last Chorus -  played until faded out
|--------------------------------------------------------|
|--------------------------------------------------------|
|-6--6-6-6--6-6-6--6-6-6--6-6-6--6-6-6--6-6-6--6-6/9-9-9-|
|-7--7-7-7--7-7-7--7-7-7--7-7-7--7-7-7--7-7-7--7-7/9-9-9-|
|-0--0-0-0--0-0-0--0-0-0--0-0-0--0-0-0--0-0-0--0-0-0-0-0-|
|-5--5-5-5--5-5-5--5-5-5--5-5-5--5-5-5--5-5-5--5-5/7-7-7-|

|---------------------------------------------|
|---------------------------------------------|
|-11---11-11-11---11-11-13---13-13-13---13-13-|
|--0----0--0--0----0--0--0----0--0--0----0--0-|
|--0----0--0--0----0--0--0----0--0--0----0--0-|
|-10---10-10-10---10-10-10---10-10-10---10-10-|

|------------------------------------------------|
|------------------------------------------------|
|-14---14-14-14---14-14-14---14-14-14---14-14-11-|
|--0----0--0--0----0--0--0----0--0--0----0--0--0-|
|--0----0--0--0----0--0--0----0--0--0----0--0--0-|
|-10---10-10-10---10-10-10---10-10-10---10-10-10-|

|--------------------------------------------------------|
|--------------------------------------------------------|
|-6--6-6-6--6-6-6--6-6-6--6-6-6--6-6-6--6-6-6--6-6/9-9-9-|
|-7--7-7-7--7-7-7--7-7-7--7-7-7--7-7-7--7-7-7--7-7/9-9-9-|
|-0--0-0-0--0-0-0--0-0-0--0-0-0--0-0-0--0-0-0--0-0-0-0-0-|
|-5--5-5-5--5-5-5--5-5-5--5-5-5--5-5-5--5-5-5--5-5/7-7-7-|

|---------------------------------------------|
|---------------------------------------------|
|-11---11-11-11---11-11-13---13-13-13---13-13-|
|--0----0--0--0----0--0--0----0--0--0----0--0-|
|--0----0--0--0----0--0--0----0--0--0----0--0-|
|-10---10-10-10---10-10-10---10-10-10---10-10-|

|------------------------------------------------|
|------------------------------------------------|
|-14---14-14-14---14-14-14---14-14-14---14-14-11-|
|--0----0--0--0----0--0--0----0--0--0----0--0--0-|
|--0----0--0--0----0--0--0----0--0--0----0--0--0-|
|-10---10-10-10---10-10-10---10-10-10---10-10-10-|
============================================================

and if you really want to get crazy with the
verse part you can combine both bass and guitar parts.

like so.

Verse
|---------------------------------------------------------|
|---------------------------------------------------------|
|---------------------------------------------------------|
|-------7/11-11-11---------7/11-11-11---------7/11-11-11--|
|-------0--0--0--0---------0--0--0--0---------0--0--0--0--|
|-0h5-5-5/-9--9--9---0h5-5-5/-9--9--9---0h2-2-5/-9--9--9--|

|-------------------|
|-------------------|
|-------------------|
|-------7/11-11-11--|
|-------0--0--0--0--|
|-0h4-4-5/-9--9--9--|

just rearange that stuff to get the bridge and wahtnot. 
its not too hard really.
Suggest correction
Creating personal tab
Creating personal tab
You can edit any tab online and save it as your Personal.

You can edit, replace or remove any tab part or add personal notes – all changes will be seen only by you.

Personal tabs can be accessed anytime from any device, even offline.
Learn more »
comments
print report bad tab
18 comments total. Showing first comments.
0 reply
AvAaron182 87 Mar 06, 2008 01:52 PM

Haha a capo live doesn't mean there's a capo on the album version. And this is most certainly not an advanced song. But it's a good tab.

+2 reply
Callo 141 Apr 09, 2008 11:13 PM

good tab, i think its better than all the rest, but i think it is so much easier to have the notes relative to the nut, rather than the capo, thats wats stoping it from being 5 stars. i will gladly change it if u do

+2 reply
Callo 141 May 10, 2008 08:36 PM

wat the hell, 5 stars

guest
You may want to rate the tab now too:
select rating
Wanna post a correction for this tab? Suggest correction