Oops, an error
Loading. Please wait.

I Miss You Chords

4,647 views 1 this week
no commentswrite comment
1 2 3 4 5
please rate
add to favorites
launch autoscroll
font size
0
reset
transpose
0
reset
display chords
guitar tuner
Tab Pro tools
  • play this tab
  • loop segment
  • change instrument
  • show fretboard
  • metronome
×
Best way to learn
"I Miss You"
Autoscroll
slow
fast
+/-
esc
set tempo
stop
Contributor
Difficulty
intermediate
-------------------------------------------------------------------------------
                             I Miss You - Blink 182
-------------------------------------------------------------------------------
Tabbed by: Unstoppabull
Email: Unstoppabull1@live.com

Tuning: standard


Intro:
e|---------------------------------------------------------------------------|
B|---------------------------------------------------------------------------|
G|---------------------------------------------------------------------------|
D|-------0-0-0---/---0-00----------0-0-0---/---9-99--------------------------|    X2
A|-------5-5-5---/---9-99----------5-5-5---/---9-99--------------------------|
E|---------------------------------------------------------------------------|

Chords:
-D-   -A-   -B-   -G-
-2-   -0-   ---   -3-
-3-   -2-   -3-   -3-
-2-   -2-   -2-   -0-
-0-   -2-   -0-   -0-
---   -0-   -2-   -2-
---   ---   ---   -3-

Verse 1:

(I miss you miss you)
    D             A 
Hello there the angel from my nightmare
     B                          G
The shadow in backround of the morgue
                   D          A
The unsespecting victim of darkness in the valley
        B                              G
We can live like Jack and Sally if we want
                       D
Where you can always find me
                  A
And we'll have Halloween on Christmas
     B                                  G
And in the night we'll wish this never ends 

We'll wish this never ends


Chorus:
e|---------------------------------------------------------------------------|
B|---------------------------------------------------------------------------|
G|----7777/9999/11-11-11-11/14-14-14-14\12-12-12-12/14-14-14-14/16-16-16-16--|
D|---------------------------------------------------------------------------|
A|----5555/7777/9--9--9--9/ 12-12-12-12\10-10-10-10/12-12-12-12/14-14-14-14--|
E|---------------------------------------------------------------------------|


Verse 2:
      D            A     
Where are you and I'm so sorry
   B                            G 
I cannot sleep I cannot dream tonight
                      D
I need somebody and always
       A                           B                            G
This sick strange darkness comes creeping on so haunting everytime
                    D          A             
And as I stared I counted the webs from all the spiders
  B                                 G
catching things and eating their insides
                    D
Like indecision to call you
      A
And hear your voice of treason
B                                     G
Will you come home and stop this pain tonight

stop this pain tonight



e|---------------------------------------------------------------------------|
B|---------------------------------------------------------------------------|
G|----7777/9999/11-11-11-11/14-14-14-14\12-12-12-12/14-14-14-14/16-16-16-16--|
D|---------------------------------------------------------------------------|
A|----5555/7777/9--9--9--9/ 12-12-12-12\10-10-10-10/12-12-12-12/14-14-14-14--|
E|---------------------------------------------------------------------------|

Don't waste your time on me your already the voice inside my head(6x)

I miss you miss you(6x
)
comments
We did not receive enough feedback on this tab! Please rate:
print report bad tab
1 2 3 4 5
I want to post or [tab]
guest
You may want to rate the tab now too:
select rating
Please do not post tabs as comments. Select "correction" instead!