Oops, an error
Loading. Please wait.

I Wont Be Home For Christmas Tab

version 3
version 3

Interactive

Video

39,731 views 21 this week
14 commentsread comments
1 2 3 4 5
excellent!
x 33
add to favorites
launch autoscroll
font size
0
reset
how to read this tab
guitar tuner
Tab Pro tools
  • play this tab
  • loop segment
  • change instrument
  • show fretboard
  • metronome
×
Best way to learn
"I Wont Be Home For Christmas"
Autoscroll
slow
fast
+/-
esc
set tempo
stop
..er...for best results, switch to "lucida console" for best results.


Standard Tuning

Intro
Lead
e|---------------------------------------------------------------------------|
B|---------------------------------------------------------------------------|
G|-------0-4-0-5-0-4-----0-4-0-0-0-4-0--7--0-2-0-5-0-4-2-0--5--0-4--7--0-4-0-| (x2)
D|----5---------------2-----------------7-------------------5-------7--------|
A|----5---------------2-----------------5-------------------3-------5--------|
E|----3----------------------------------------------------------------------|

2nd guitarist plays this while lead plays solo-----basically playing along with the lead
guitarist, but with the power chords
e|---------------------------------------------------------------------------|
B|---------------------------------------------------------------------------|
G|--------------------------------------7--7-7-7-7-7-7-7-7-5--5-5-5-7--7-7-7-|(x2)
D|----5--5-5-5-5-5-5-5-2--2-2-2-2-2-2-2-7--7-7-7-7-7-7-7-7-5--5-5-5-7--7-7-7-|
A|----5--5-5-5-5-5-5-5-2--2-2-2-2-2-2-2-5--5-5-5-5-5-5-5-5-3--3-3-3-5--5-5-5-|
E|----3--3-3-3-3-3-3-3-------------------------------------------------------|

Verse - both guitars play
e|---------------------------------------------------------------------------------------|
B|---------------------------------------------------------------------------------------|
G|----------------------------------------------5-5-5-5-5-5---5---5--7-7-7-7-7-7---7---7-|(x2)
D|----5-5-5-5-5-5---5---5--2-2-2-2-2-2---2---2--5-5-5-5-5-5---5---5--7-7-7-7-7-7---7---7-|
A|----5-5-5-5-5-5---5---5--2-2-2-2-2-2-2-2-2-2--3-3-3-3-3-3-3-3-3-3--5-5-5-5-5-5-5-5-5-5-|
E|----3-3-3-3-3-3-3-3-3-3----------------------------------------------------------------|
         .......   .   .      . . . .   .   .      .......   .   .      .......   .   .

Bridge - lead guitarist
e|-----|
B|-----|(x8)
G|-----|
D|---0-|
A|---5-|
E|-----|

Verse again - both guitars play
e|---------------------------------------------------------------------------------------|
B|---------------------------------------------------------------------------------------|
G|----------------------------------------------5-5-5-5-5-5---5---5--7-7-7-7-7-7---7---7-|(x2)
D|----5-5-5-5-5-5---5---5--2-2-2-2-2-2---2---2--5-5-5-5-5-5---5---5--7-7-7-7-7-7---7---7-|
A|----5-5-5-5-5-5---5---5--2-2-2-2-2-2-2-2-2-2--3-3-3-3-3-3-3-3-3-3--5-5-5-5-5-5-5-5-5-5-|
E|----3-3-3-3-3-3-3-3-3-3----------------------------------------------------------------|
         .......   .   .      . . . .   .   .      .......   .   .      .......   .   .

Chorus - both guitars play
e|----------------------------|
B|----------------------------|
G|----------7-----------5(x6)-|(x2)
D|----5(x6)-7(x6)-2(x6)-5-----|
A|----5-----5-----2-----3-----|
E|----3-----------------------|

Intro again
Lead
e|---------------------------------------------------------------------------|
B|---------------------------------------------------------------------------|
G|-------0-4-0-5-0-4-----0-4-0-0-0-4-0--7--0-2-0-5-0-4-2-0--5--0-4--7--0-4-0-| (x2)
D|----5---------------2-----------------7-------------------5-------7--------|
A|----5---------------2-----------------5-------------------3-------5--------|
E|----3----------------------------------------------------------------------|

2nd guitarist plays this while lead plays solo----- playing along with the lead
guitarist, but with the power chords
e|---------------------------------------------------------------------------|
B|---------------------------------------------------------------------------|
G|--------------------------------------7--7-7-7-7-7-7-7-7-5--5-5-5-7--7-7-7-|(x2)
D|----5--5-5-5-5-5-5-5-2--2-2-2-2-2-2-2-7--7-7-7-7-7-7-7-7-5--5-5-5-7--7-7-7-|
A|----5--5-5-5-5-5-5-5-2--2-2-2-2-2-2-2-5--5-5-5-5-5-5-5-5-3--3-3-3-5--5-5-5-|
E|----3--3-3-3-3-3-3-3-------------------------------------------------------|

2nd Verse - lead plays
e|----------------------|
B|----------------------|
G|----------------------|(x2)
D|------5---5-----5---5-|
A|--------5--------5-5--|
E|---3-3------3-3-------|

Outro
Verse - both guitars play
e|--------------------------------|
B|--------------------------------|
G|----------7-----------5(x6)-----|
D|----5(x6)-7(x6)-2(x6)-5-------5-|
A|----5-----5-----2-----3-------5-|
E|----3-------------------------3-|


 ->OhLordy<-
Have fun! ^.^
comments
print report bad tab
14 comments total. Showing first comments. show 1 bad comment
+2 reply
HardcoreJim wrote on September 20 2006, 08:29 am

Cool song

+1 reply
Bair wrote on December 13 2006, 05:09 pm

Excellent

I want to post or [tab]
guest
You may want to rate the tab now too:
select rating
Please do not post tabs as comments. Select "correction" instead!