Oops, an error
Loading. Please wait.

I Wont Be Home For Christmas Tab

version 6
version 6

Interactive

Video

3,287 views 15 this week
no commentswrite comment
1 2 3 4 5
excellent!
x 10
add to favorites
launch autoscroll
font size
0
reset
how to read this tab
guitar tuner
Tab Pro tools
  • play this tab
  • loop segment
  • change instrument
  • show fretboard
  • metronome
×
Best way to learn
"I Wont Be Home For Christmas"
Autoscroll
slow
fast
+/-
esc
set tempo
stop
Contributor
-----------------------------------------------------------------------------
                  I Wont Be Home For Christmas - Blink-182
-----------------------------------------------------------------------------
Tabbed by:  Dan

Tuning:  Standard

Time signature:  4/4

Tempo:  200 bpm

Key signature:  G major (F = #)

Okay, so my band, Otonamous, is gunna cover this song, and I learned my part
by ear, and the other guitar player in my band was gunna look up a tab. so I
was gunna refer him to a good one. And they were all wrong. So I made one of
my own. Tell me if i screwed up anywhere. For the most part, it's correct.
If anything is wrong it just means I transcribed it wrong. Cuz I know how to
play it right.

Check out my band, Otonamous, on Facebook!! send us a message and tell us
what you think!!

Intro
e|-----------------|-----------------|-------------------|------------------|
B|.----------------|-----------------|-------------------|-----------------.|
G|-0-0-4-0-5-0-4-0-|---0-4-0---0-4-0-|---0-2-0-5-0-4-2-0-|---0-4-0---0-4-0--|
D|-----------------|-2-------2-------|-0-----------------|---------0--------|
A|.----------------|-----------------|-------------------|-3---------------.|
E|-----------------|-----------------|-------------------|------------------|
   1 + 2 + 3 + 4 +   1 + 2 + 3 + 4 +   1 + 2 + 3 + 4 e +   1 + 2 + 3 + 4 +

Verse 1
e|---------------------------------|---------------------------------|
B|.--------------------------------|---------------------------------|
G|---------------------------------|---------------------------------|
D|-----------------5-----5-----5---|-----------------5-----5-----5---|
A|.5---5-5-5-5-5-5---5-5---5-5---5-|-2---2-2-2-2-2-2---2-2---2-2---2-|
E|-3---3-3-3-3-3-3---3-3---3-3---3-|-0---0-0-0-0-0-0---0-0---0-0---0-|
       . . . . . .   . .   . .   .       . . . . . .   . .   . .   . 
   1   + a 2 e + a 3 e + a 4 e + a   1   + a 2 e + a 3 e + a 4 e + a

e|---------------------------------|---------------------------------|
B|---------------------------------|--------------------------------.|
G|---------------------------------|---------------------------------|
D|-5---5-5-5-5-5-5-5-5-5-5-5-5-5-5-|-4---4-4-4-4-4-4-4-4-4-4-4-4-4-4-|
A|-3---3-3-3-3-3-3---3-3---3-3---3-|-5---5-5-5-5-5-5---5-5---5-5---5.|
E|---------------------------------|---------------------------------|
       . . . . . .   . .   . .   .       . . . . . .   . .   . .   . 
   1   + a 2 e + a 3 e + a 4 e + a   1   + a 2 e + a 3 e + a 4 e + a

e|---------------------------------|
B|---------------------------------|
G|-4---4-4-4---4-4-4-4-4-4-4-4-4-4-|
D|-5---5-5-5---5-5-5-5-5-5-5-5-5-5-|
A|---------------------------------|
E|---------------------------------|
   1   + a 2   + a 3 e + a 4 e + a

Verse 2
e|---------------------------------|---------------------------------|
B|---------------------------------|---------------------------------|
G|---------------------------------|---------------------------------|
D|-----------------5-----5-----5---|-----------------5-----5-----5---|
A|-5---5-5-5-5-5-5---5-5---5-5---5-|-2---2-2-2-2-2-2---2-2---2-2---2-|
E|-3---3-3-3-3-3-3---3-3---3-3---3-|-0---0-0-0-0-0-0---0-0---0-0---0-|
       . . . . . .   . .   . .   .       . . . . . .   . .   . .   . 
   1   + a 2 e + a 3 e + a 4 e + a   1   + a 2 e + a 3 e + a 4 e + a

e|---------------------------------|---------------------------------|
B|---------------------------------|---------------------------------|
G|---------------------------------|---------------------------------|
D|-5---5-5-5-5-5-5-5-5-5-5-5-5-5-5-|-4---4-4-4-4-4-4-4-4-4-4-4-4-4-4-|
A|-3---3-3-3-3-3-3---3-3---3-3---3-|-5---5-5-5-5-5-5---5-5---5-5---5-|
E|---------------------------------|---------------------------------|
       . . . . . .   . .   . .   .       . . . . . .   . .   . .   . 
   1   + a 2 e + a 3 e + a 4 e + a   1   + a 2 e + a 3 e + a 4 e + a

e|---------------------------------|---------------------------------|
B|---------------------------------|---------------------------------|
G|---------------------------------|---------------------------------|
D|-----------------5-----5-----5---|-----------------5-----5-----5---|
A|-5---5-5-5-5-5-5---5-5---5-5---5-|-2---2-2-2-2-2-2---2-2---2-2---2-|
E|-3---3-3-3-3-3-3---3-3---3-3---3-|-0---0-0-0-0-0-0---0-0---0-0---0-|
       . . . . . .   . .   . .   .       . . . . . .   . .   . .   . 
   1   + a 2 e + a 3 e + a 4 e + a   1   + a 2 e + a 3 e + a 4 e + a

e|---------------------------------|---------------------------------|
B|---------------------------------|---------------------------------|
G|---------------------------------|---------------------------------|
D|-5---5-5-5-5-5-5-5-5-5-5-5-5-5-5-|-4---4-4-4-4-4-4-4---------------|
A|-3---3-3-3-3-3-3---3-3---3-3---3-|-5---5-5-5-5-5-5-5---------------|
E|---------------------------------|---------------------------------|
       . . . . . .   . .   . .   .       . . . . . .  
   1   + a 2 e + a 3 e + a 4 e + a   1   + a 2 e + a 3 

Chorus (rhythm)
e|---------------------------------|---------------------------------|
B|---------------------------------|---------------------------------|
G|-----------------7---7-7-7---7-7-|-----------------5---5-5-5---5-5-|
D|-5---5-5-5---5-5-7---7-7-7---7-7-|-2---2-2-2---2-2-5---5-5-5---5-5-|
A|-5---5-5-5---5-5-5---5-5-5---5-5-|-2---2-2-2---2-2-3---3-3-3---3-3-|
E|-3---3-3-3---3-3-----------------|-0---0-0-0---0-0-----------------|
   1   + a 2   + a 3   + a 4   + a   1   + a 2   + a 3   + a 4   + a 

e|---------------------------------|---------------------------------|
B|---------------------------------|---------------------------------|
G|-----------------7---7-7-7---7-7-|-----------------5---5-5-5---5-5-|
D|-5---5-5-5---5-5-7---7-7-7---7-7-|-2---2-2-2---2-2-5---5-5-5---5-5-|
A|-5---5-5-5---5-5-5---5-5-5---5-5-|-2---2-2-2---2-2-3---3-3-3---3-3-|
E|-3---3-3-3---3-3-----------------|-0---0-0-0---0-0-----------------|
   1   + a 2   + a 3   + a 4   + a   1   + a 2   + a 3   + a 4   + a 

e|---------------------------------|---------------------------------|
B|---------------------------------|---------------------------------|
G|-----------------7---7-7-7---7-7-|-----------------5---5-5-5---5-5-|
D|-5---5-5-5---5-5-7---7-7-7---7-7-|-2---2-2-2---2-2-5---5-5-5---5-5-|
A|-5---5-5-5---5-5-5---5-5-5---5-5-|-2---2-2-2---2-2-3---3-3-3---3-3-|
E|-3---3-3-3---3-3-----------------|-0---0-0-0---0-0-----------------|
   1   + a 2   + a 3   + a 4   + a   1   + a 2   + a 3   + a 4   + a 

e|---------------------------------|---------------------------------|
B|---------------------------------|---------------------------------|
G|-----------------7---7-7-7---7-7-|-----------------5---5-5-5---5-5-|
D|-5---5-5-5---5-5-7---7-7-7---7-7-|-2---2-2-2---2-2-5---5-5-5---5-5-|
A|-5---5-5-5---5-5-5---5-5-5---5-5-|-2---2-2-2---2-2-3---3-3-3---3-3-|
E|-3---3-3-3---3-3-----------------|-0---0-0-0---0-0-----------------|
   1   + a 2   + a 3   + a 4   + a   1   + a 2   + a 3   + a 4   + a 
(becomes 4/8 for one measure)
e|-----------------|
B|-----------------|
G|-7-7-7-7-7-7-7-7-|
D|-7-7-7-7-7-7-7-7-|
A|-5-5-5-5-5-5-5-5-|
E|-----------------|
   1 + 2 + 3 + 4 +

2nd Intro
e|-----------------|-----------------|-------------------|------------------|
B|.----------------|-----------------|-------------------|-----------------.|
G|-0-0-4-0-5-0-4-0-|---0-4-0---0-4-0-|---0-2-0-5-0-4-2-0-|---0-4-0---0-4-0--|(let open G ring)
D|-----------------|-2-------2-------|-0-----------------|---------0--------|
A|.----------------|-----------------|-------------------|-3---------------.|
E|-----------------|-----------------|-------------------|------------------|
   1 + 2 + 3 + 4 +   1 + 2 + 3 + 4 +   1 + 2 + 3 + 4 e +   1 + 2 + 3 + 4 +

Verse 3
e|---------------------------------|---------------------------------|
B|---------------------------------|---------------------------------|
G|---------------------------------|---------------------------------|
D|-----------------5-----5-----5---|-----------------5-----5-----5---|
A|-5---5-5-5-5-5-5---5-5---5-5---5-|-2---2-2-2-2-2-2---2-2---2-2---2-|
E|-3---3-3-3-3-3-3---3-3---3-3---3-|-0---0-0-0-0-0-0---0-0---0-0---0-|
       . . . . . .   . .   . .   .       . . . . . .   . .   . .   . 
   1   + a 2 e + a 3 e + a 4 e + a   1   + a 2 e + a 3 e + a 4 e + a

e|---------------------------------|---------------------------------|
B|---------------------------------|---------------------------------|
G|---------------------------------|---------------------------------|
D|-5---5-5-5-5-5-5-5-5-5-5-5-5-5-5-|-4---4-4-4-4-4-4-4-4-4-4-4-4-4-4-|
A|-3---3-3-3-3-3-3---3-3---3-3---3-|-5---5-5-5-5-5-5---5-5---5-5---5-|
E|---------------------------------|---------------------------------|
       . . . . . .   . .   . .   .       . . . . . .   . .   . .   . 
   1   + a 2 e + a 3 e + a 4 e + a   1   + a 2 e + a 3 e + a 4 e + a

e|---------------------------------|---------------------------------|
B|---------------------------------|---------------------------------|
G|---------------------------------|---------------------------------|
D|-----------------5-----5-----5---|-----------------5-----5-----5---|
A|-5---5-5-5-5-5-5---5-5---5-5---5-|-2---2-2-2-2-2-2---2-2---2-2---2-|
E|-3---3-3-3-3-3-3---3-3---3-3---3-|-0---0-0-0-0-0-0---0-0---0-0---0-|
       . . . . . .   . .   . .   .       . . . . . .   . .   . .   . 
   1   + a 2 e + a 3 e + a 4 e + a   1   + a 2 e + a 3 e + a 4 e + a

e|---------------------------------|---------------------------------|
B|---------------------------------|---------------------------------|
G|---------------------------------|---------------------------------|
D|-5---5-5-5-5-5-5-5-5-5-5-5-5-5-5-|-4---4-4-4-4-4-4-4---------------|
A|-3---3-3-3-3-3-3---3-3---3-3---3-|-5---5-5-5-5-5-5-5---------------|
E|---------------------------------|---------------------------------|
       . . . . . .   . .   . .   .       . . . . . .  
   1   + a 2 e + a 3 e + a 4 e + a   1   + a 2 e + a 3 


Chorus (rhythm)
e|---------------------------------|---------------------------------|
B|---------------------------------|---------------------------------|
G|-----------------7---7-7-7---7-7-|-----------------5---5-5-5---5-5-|
D|-5---5-5-5---5-5-7---7-7-7---7-7-|-2---2-2-2---2-2-5---5-5-5---5-5-|
A|-5---5-5-5---5-5-5---5-5-5---5-5-|-2---2-2-2---2-2-3---3-3-3---3-3-|
E|-3---3-3-3---3-3-----------------|-0---0-0-0---0-0-----------------|
   1   + a 2   + a 3   + a 4   + a   1   + a 2   + a 3   + a 4   + a 

e|---------------------------------|---------------------------------|
B|---------------------------------|---------------------------------|
G|-----------------7---7-7-7---7-7-|-----------------5---5-5-5---5-5-|
D|-5---5-5-5---5-5-7---7-7-7---7-7-|-2---2-2-2---2-2-5---5-5-5---5-5-|
A|-5---5-5-5---5-5-5---5-5-5---5-5-|-2---2-2-2---2-2-3---3-3-3---3-3-|
E|-3---3-3-3---3-3-----------------|-0---0-0-0---0-0-----------------|
   1   + a 2   + a 3   + a 4   + a   1   + a 2   + a 3   + a 4   + a 

e|---------------------------------|---------------------------------|
B|---------------------------------|---------------------------------|
G|-----------------7---7-7-7---7-7-|-----------------5---5-5-5---5-5-|
D|-5---5-5-5---5-5-7---7-7-7---7-7-|-2---2-2-2---2-2-5---5-5-5---5-5-|
A|-5---5-5-5---5-5-5---5-5-5---5-5-|-2---2-2-2---2-2-3---3-3-3---3-3-|
E|-3---3-3-3---3-3-----------------|-0---0-0-0---0-0-----------------|
   1   + a 2   + a 3   + a 4   + a   1   + a 2   + a 3   + a 4   + a 

e|---------------------------------|---------------------------------|
B|---------------------------------|---------------------------------|
G|-----------------7---7-7-7---7-7-|-----------------5---5-5-5---5-5-|
D|-5---5-5-5---5-5-7---7-7-7---7-7-|-2---2-2-2---2-2-5---5-5-5---5-5-|
A|-5---5-5-5---5-5-5---5-5-5---5-5-|-2---2-2-2---2-2-3---3-3-3---3-3-|
E|-3---3-3-3---3-3-----------------|-0---0-0-0---0-0-----------------|
   1   + a 2   + a 3   + a 4   + a   1   + a 2   + a 3   + a 4   + a 
(becomes 4/8 for one measure)
e|-----------------|
B|-----------------|
G|-7-7-7-7-7-7-7-7-|
D|-7-7-7-7-7-7-7-7-|
A|-5-5-5-5-5-5-5-5-|
E|-----------------|
   1 + 2 + 3 + 4 +


Interlude (apologies on the timing. there is no easy accurate way to display the 
timing on the slides. you'll figure it out)
                                                                      x8
e|---------------------------------|--------------------------------|--|
B|.--------------------------------|--------------------------------|-.|
G|-----0---------------0-----------|----0---------------0-----------|--|
D|---------0---------------0-------|--------0---------------0-------|--|
A|.--------------------------------|--------------------------------|-.|
E|-3-----------3-3/5-----------5-5/|7-----------7-7/8-----------8-8\|3-|
   1 e + a 2 e + a 3 e + a 4 e + a  1 e + a 2 e + a 3 e + a 4 e + a  1 (repeat from here)


Chorus (lead)                      x4 (4/8 part)
e|-----------------------------------|---------|
B|.---------------------------------.|---------|
G|---0-0-0---0-0-0-----0-0-0---0-0-0-|-0-0-0-0-|
D|-----------------------------------|---------|
A|.--------5-----------------3------.|---------|
E|-3-----------------0---------------|---------|
   1 + 2 + 3 + 4 +   1 + 2 + 3 + 4 +   1 2 3 4

************************************

|.                   .|
|.  Repeated section .|


************************************
comments
print report bad tab
I want to post or [tab]
guest
You may want to rate the tab now too:
select rating
Please do not post tabs as comments. Select "correction" instead!